Pbiab - End Of My Rope Chords & Tabs

 

End Of My Rope Chords & Tabs

Pbiab Chords & Tabs

Version: 1 Type: Tab 0 ratings
1 star 2 stars 3 stars 4 stars 5 stars
comments

End Of My Rope Tab

   
Song: End of My Rope
Artist: Portible Bitch in a Box
Album: N/a

|*********************************|
| Slide up:/ Slide down: Bend:^   |
|Hammar on:h Pull off:p vibrato:" |
|*********************************|



Intro
E|------------------------------------------------------------------------------|
B|------------------------------------------------------------------------------|
G|------------------------------------------------------------------------------|
D|---14-14-14-14-14----14-14-14-14-14----14-14-14-9-9-9-11-11-11-11-11-11-11-11-|
A|---12-12-12-12-12-14-12-12-12-12-12-14-12-12-12-7-7-7-9--9--9--9--9--9--9--9--|
E|------------------12----------------12----------------------------------------|


E|-------------------------------------------------------------------------------|
B|-------------------------------------------------------------------------------|
G|-------------------------------------------------------------------------------|
D|---14-14-14-14-14----14-14-14-14-14----14-14-14--------------------------------|
A|---12-12-12-12-12-14-12-12-12-12-12-14-12-12-12-9-9-9-11-11-11-11-11-11-11-11--|
E|------------------12----------------12----------7-7-7-9--9--9--9--9--9--9--9---|

[ Tab from: http://www.guitartabs.cc/tabs/p/pbiab/end_of_my_rope_tab.html ]
Verse
E|-------------------------------------------------------------------------------|
B|---3-3-3-2-2-2-3-3-3-3-3-3-3-3--3-3-3-2-2-2-8-8-8-7-7-7-7-7--------------------|
G|---2-2-2-2-2-2-0-0-0-0-0-0-0-0--2-2-2-2-2-2-0-0-0-0-0-0-0-0--------------------|
D|---0-0-0-0-0-0-0-0-0-0-0-0-0-0--0-0-0-0-0-0-0-0-0-0-0-0-0-0--------------------|
A|-------------------------------------------------------------------------------|
E|-------------------------------------------------------------------------------|

E|-------------------------------------------------------------------------------|
B|---3-3-3-2-2-2-3-3-3-3-3-3-3-3--3-3-3-2-2-2-8-8-8-7-7-7-7-7--------------------|
G|---2-2-2-2-2-2-0-0-0-0-0-0-0-0--2-2-2-2-2-2-0-0-0-0-0-0-0-0--------------------|
D|---0-0-0-0-0-0-0-0-0-0-0-0-0-0--0-0-0-0-0-0-0-0-0-0-0-0-0-0--------------------|
A|-------------------------------------------------------------------------------|
E|-------------------------------------------------------------------------------|


Chours
E|-------------------------------------------------------------------------------|
B|-------------------------------------------------------------------------------|
G|-------------------------------------------------------------------------------|
D|---4-4-4-4-4-4-4-4-------------------------------------------------------------|
A|---2-2-2-2-2-2-2-2-4-4-4-4-4-4-4-4-6-6-6-8-8-8-9-LET RING----------------------|
E|-------------------2-2-2-2-2-2-2-2-4-4-4-6-6-6-7-LET RING----------------------|

Solo
E|-------------------------------------------------------------------------------|
B|---12"-12-14h-12-11-9-7-7-14-12-12-14h-12p-14h-12p-14h-12p-14h-12p-------------|

E|---14-12-11-12-11-9-11-9-7-----------7-9h-6-7/-11-11-9-11-12-11-12-14-12-14----|
B|---------------------------9-7"-7-9h---------------------------------------14^|

Order of Song
Intro
Intro
Verse
Verse
Chours
Chours
Verse
Verse
Solo
Chours
Chours
Chours Mixed with Verse
Chours Mixed with Verse

Comments