Pay The Girl - Gravity Chords & Tabs

 

Gravity Chords & Tabs

Pay The Girl Chords & Tabs

Version: 1 Type: Tab 0 ratings
1 star 2 stars 3 stars 4 stars 5 stars
comments

Gravity Tab

   
Artist: Pay the Girl 
Song: Gravity 


Tabbed by: Jarvin Co of Mr. Cucumber 

intro/verse:
e|--3333-3-3-3-3-|    |--1111--|
B|--5555-3-5-3-4-|    |--1111--|
G|--5555-5-5-5-5-|6x  |--3333--|     
D|--5555-5-5-5-5-|    |--3333--|
A|--3333-3-3-3-3-|    |--1111--|
E|--xxxx-x-x-x-x-|    |--xxxx--|

repeat throughout intro and verse
[ Tab from: http://www.guitartabs.cc/tabs/p/pay_the_girl/gravity_tab.html ]
Pre- Chorus: 
Just figure out the st5rumming pattern...
e|------------------|
B|------------------|
G|------------------|
D|-2---4---6---4----|
A|-2---4---6---4----|
E|-0---2---4---2----|
   E5 F#5 G#5 F#5

Chorus: 
Just figure out the strumming pattern...
e|------------------|
B|------------------|
G|------------------|
D|-2---4---6---7----|
A|-2---4---6---7----|
E|-0---2---4---5----|
   E5 F#5 G#5 A5
Comments