Pax 217 - Melody Chords & Tabs

 

Melody Chords & Tabs

Pax 217 Chords & Tabs

Version: 1 Type: Bass Tab 0 ratings
1 star 2 stars 3 stars 4 stars 5 stars
comments

Melody Bass Tab

   
Dropped D

intro:

G-----------------------------|
D-----------------------------|
A-----------------------------|
D--4-------0-------4-------0--|

chorus:

G----------------------------------------------------------|
D----------------------------------------------------------|
A----------------------00000------------------------00000--|
D-44444--00000--22222---------444444--00000--22222---------|

verse:
[ Tab from: http://www.guitartabs.cc/tabs/p/pax_217/melody_btab.html ]
G--------------------------------|
D-------7--5-4----------7--------|
A--555---------7--4444-----44-5--|
D--------------------------------|

bridge 1:

G----------------|
D----------------|
A----------------|
D-4---0---4---0--|

bridge 2:

G-----------------------------|
D--------------------------0--|
A------------0----------------|
D-4444--444-----0000--000-----|

ORDER:

intro x1
chorus x2
verse  x7
chorus x2
verse  x7
chorus x2
bridge1 x1
bridge2 x4
chorus  x3

tabbed by the father of it all...Malo.  bone_less_chicken@hotmail.com.
Comments