Paw - Pansy Chords & Tabs

 

Pansy Chords & Tabs

Paw Chords & Tabs

Version: 1 Type: Tab 0 ratings
1 star 2 stars 3 stars 4 stars 5 stars
comments

Pansy Tab

This is from http://members.aol.com/bdinger/
I'm not sure who tabbed it but it seems correct.

Play it along with the song and it's easy to see where the parts go.
EBGDAE
Pansy

---------------------------------------------------------------------------|
---------------------------------------------------------------------------|
---------------------------------------------------------------------------|
-2 fade in  ---3--2--2--5---2--2--3--2--3---2--2--5--2--2-3---2---3--------|
-2-------------------------------------------------------------------------|
-0-------------------------------------------------------------------------|


--------------------------------------------------------------|
--------------------------------------------------------------|
--------------------------------------------------------------|
-2-----------3----3----2----2----------3------3---------------|
-2-----------3----3----2----2----------3------3---------------|
-0--0---0----1----1----0----0---0-0----1--0---1---------------|


I could go either way with these two down below.  I think the author may be correct -
I made up the second one.

------0---------0--------------0-------------0-----------------|
---------3----------3-------------3--------------3-------------|
----0---------0-------------0-------------0--------------------|
--3---------2--------------------------------------------------|
-------------------------3------------2------------------------|
---------------------------------------------------------------|
NOTE: see below for the above tab.
[ Tab from: http://www.guitartabs.cc/tabs/p/paw/pansy_tab.html ]
e------------------------------------------------------------------|
B----------3-------------3--------------3----------------3---------|
G-------------0-------------0---------------0---------------0------|
D-------0--------------0--------------0----------------0-----------|
A----3-------------2-----------------------------------------------|
E---------------------------------3-----------------2--------------|


-------------------------------------------------------------|
-------------------------------------------------------------|
----5--5---5---------7----7----------------------------------|
----5--5---5---------7----7----5-----5------2----------------|
----3--3---3---------5----5----5-----5------2--------2-------|
-------------------------------3-----3------0--------0-------|

----------------------------------------------------------------------------|
----------------------------------------------------------------------------|
------------------------------------------------------------7----7---7---7--|
----2------------------------3-----------------7-----2------7----7---7---7--|
----2-----heavy palm mute----3-----------------7-----2------5----5---5---5--|
----0---0---0-0--0--0--------1---0-0--0--0-0---5-----0----------------------|


------------------------------------------------------------------------------|
------------------------------------------------------------------------------|
9--9 -9--9--9-----/--10--10---------------------------------------------------|
9--9--9--9--9---/----10---10--------10----5-----3---2-------------------------|
7--7--7--7--7-/------8----8---------10----5-----3---2-------------------------|
------------------------------------8-----3-----1---0-------------------------|

I'm not sure, but the author's tab could be played like this:

------0---------0--------------0-------------0-----------------|
--------3----------3-------------3--------------3--------------|
----0---------0------------------------------------------------|
--3---------2--------------0--------------0--------------------|
-------------------------3------------2------------------------|
---------------------------------------------------------------|

The last two sets have the open on the D string rather than the G.
Comments