Paw - Couldnt Know Chords & Tabs

 

Couldnt Know Chords & Tabs

Paw Chords & Tabs

Version: 1 Type: Tab 0 ratings
1 star 2 stars 3 stars 4 stars 5 stars
comments

Couldnt Know Tab



++++++++++++++++++++++++++++++++++++++++++++++++++++++++++++++++++++++
Couldnt know
By PAW
ALBUM: Dragline 1992
Transcribed by hefesto (hefesto80@hotmail.com)
++++++++++++++++++++++++++++++++++++++++++++++++++++++++++++++++++++++

INTRO
moderate dist.
[ Tab from: http://www.guitartabs.cc/tabs/p/paw/couldnt_know_tab.html ]
..........palmute                                        open strings
e--------------------------|-------------------|---------------------
b--------------------------|-------------------|---------------------
g----7--7--7--7--7--7--7---|-7--7--7--7--7--7--|---------------------
d----7--7--7--7--7--7--7---|-7--7--7--7--7--7--|---5--5--5--5--5-----
a----5--5--5--5--5--5--5---|-4--4--4--4--4--4--|---5--5--5--5--5-----
E--------------------------|-------------------|---3--3--3--3--3-----



e--------------------------|------------------|
b--------------------------|------------------|
g--------------------------|------------------|
d----4--4--4---------------|-----2--2--2------|
a----2--2--2---------------|-----2--2--2------|
E--------------------------|-----0--0--0------|

_*All the time is the same.

This part, when he say: “the most beautyful thing I ever see” its to easy 
just change D5 to E5 and C5 to E5.

In the future I submit the final part.
Comments