Paw - Built Low Chords & Tabs

 

Built Low Chords & Tabs

Paw Chords & Tabs

Version: 1 Type: Tab 0 ratings
1 star 2 stars 3 stars 4 stars 5 stars
comments

Built Low Tab

Anthony and Mike DePiano

Built Low

e---------------------------------------------------|
B---------------------------------------------------|
G--7--7-7-7--7-6--6--6--6---------------------------|
D--7--7-7-7--7-6--6--6--6-7---7-7-7--7--7-7---------|
A--5--5-5-5--5-4--4--4--4-7---7-7-7--7--7-7---------|
E-------------------------5---5-5-5--5--5-5---------|
                          ^Hold for a second or two

I'm not sure if the 577 on the E,A, and D strings is strummed once and held, or if
it is played a few more times as I wrote out.  It seems it could go either way.
I have to listen to the song.

Chorus
[ Tab from: http://www.guitartabs.cc/tabs/p/paw/built_low_tab.html ]
e--------------------???????????------------------|
B-------------------------------------------------|
G-2-2----------------5-5--6-7-8-------------------|
D-2-2-4--4--4-4-4---------------------------------|
A-0-0-4--4--4-4-4-2--3-3--4-5-6-------------------|
E-----2--2--2-2-2-0-------------------------------|
                    "watch how low I get"

I'm not sure about the ending to this (strings D and A), but it's close and I'm
doing it off of memory.

e--------------------??????????-------------------|
B-------------------------------------------------|
G-2-2----------------7-7--6-5-2-------------------|
D-2-2-4--4--4-4-4-------------2-------------------|
A-0-0-4--4--4-4-4-2--5-5--4-3-0-------------------|
E-----2--2--2-2-2-0-------------------------------|
                    "so much lower, yet"

Acoustic Part
e-------------------------------------------------|
B------5*-------------5*--------------------------|
G----6---6-6h7p6----6---6-6h7p6-------------------|
D--7-------------7--------------------------------|
A-------------------------------------------------|
E-------------------------------------------------|
        + Harmonics    + Harmonics

This acoustic part is played four times, I believe.  I just wrote the two out.
Comments