Paw - Bridge Chords & Tabs

 

Bridge Chords & Tabs

Paw Chords & Tabs

Version: 1 Type: Tab 0 ratings
1 star 2 stars 3 stars 4 stars 5 stars
comments

Bridge Tab

   
PAW
The Bridge
Anthony and Mike DePiano

Standard Tuning - eBGDAE

Legend
u = strum up (just a suggestion of how to play)
d = strum down
/ = slide
x = muted strings at last chord played - I put the chord in parentheses
pm = palm mute
(6)(8) etc... put fingers on strings and mute them.
[] = reference chord for single notes.  It shows where to place your
     hand
? = not sure about how to play it
~ = vibrato.  Let the chord ring.

INTRO (This is the closest my brother and I could do.  It sounds
       pretty much right)
e-----|--repeat four----|------2--2-2--2-2-2-2--2-2--2-2-2-2-|
B-----|------times------|------2--2-2--2-2-2-2--2-2--2-2-2-2-|
G-3-3-|-3/5/3-3-(3)x-x--|--3/5/4--4-4--4-4-4-4--4-4--4-4-4-4-|
D-3-3-|-3/5/3-3-(3)x-x--|--3/5/4--4-4--4-4-4-4--4-4--4-4-4-4-|
A-1-1-|-1/3/1-1-(1)x-x--|--1/3/2--2-2--2-2-2-2--2-2--2-2-2-2-|
E-1-1-|-1/3/1-1-(1)x-x--|--1/3-------------------------------|
                                       ^Right around here Grant Fitch
plays something that goes from low to high, like he slides chords up
the guitar, but it's hard to hear and I can't figure it out.

                                     ???????????????????
e-----|--repeat four----|------2--2----2-----2-----2-----|
B-----|------times------|------2--2------2-----2-----2---|
G-3-3-|-3/5/3-3-(3)x-x--|--3/5/4--4--4-----4-----4-----4-|
D-3-3-|-3/5/3-3-(3)x-x--|--3/5/4--4----------------------|
A-1-1-|-1/3/1-1-(1)x-x--|--1/3/2--2----------------------|
E-1-1-|-1/3/1-1-(1)x-x--|--1/3---------------------------|

                          ??????????????????????
e-----|----------------|--------------------------|
B-----|---Play twice---|--------------------------|
G-3-3-|-3/5/3-3-(3)x-x-|--------------------------|
D-3-3-|-3/5/3-3-(3)x-x-|--------------------------|
A-1-1-|-1/3/1-1-(1)x-x-|--0-2-0-1~-0-1-0-1-0-1-0~-|
E-1-1-|-1/3/1-1-(1)x-x-|--0-2-0-1~-0-1-0-1-0-1-0~-|


It sounds like the verse can be played with the same chord formation,
but at different places on the guitar.  Like: 557755, 335533, 113311,
002200.  I prefer the one I wrote out... right below.

   d d     d u d   u u     d u d   u  u d u  u d u  u d u  u d
e--6-6--(6)x-x-x---4-4--(4)x-x-x---2--2-2-2--2-2-2--2-2-2--2-2-|
B--6-6--(6)x-x-x---4-4--(4)x-x-x---2--2-2-2--2-2-2--2-2-2--2-2-|
G--8-8--(8)x-x-x---6-6--(6)x-x-x---4--4-4-4--4-4-4--4-4-4--4-4-| x 3
D--8-8--(8)x-x-x---6-6--(6)x-x-x---4--4-4-4--4-4-4--4-4-4--4-4-|
A--6-6--(6)x-x-x---4-4--(4)x-x-x---2--2-2-2--2-2-2--2-2-2--2-2-|
E--6-6--(6)x-x-x---4-4--(4)x-x-x---2--2-2-2--2-2-2--2-2-2--2-2-|
        Mute Chords    Mute Chords

e--6-6--(6)x-x-x---4-4--(4)x-x-x---3--3-3--3-3-3-3--3-3-3--|
B--6-6--(6)x-x-x---4-4--(4)x-x-x---3--3-3--3-3-3-3--3-3-3--|
G--8-8--(8)x-x-x---6-6--(6)x-x-x---0--0-0--0-0-0-0--0-0-0--|
D--8-8--(8)x-x-x---6-6--(6)x-x-x---2--2-2--2-2-2-2--2-2-2--|
A--6-6--(6)x-x-x---4-4--(4)x-x-x---3--3-3--3-3-3-3--3-3-3--|
E--6-6--(6)x-x-x---4-4--(4)x-x-x---------------------------|
        Mute Chords    Mute Chords

CHORUS I (2 ways to play it.)

1. Played with full chords.
[ Tab from: http://www.guitartabs.cc/tabs/p/paw/bridge_tab.html ]
   d d d u d  d u  u d u  u d  d d d  d d  d d   d d
e----3-3-3-3--3-3--3-3-3--3-3--3-3-3--3-3--3-3-|---3-|
B----3-3-3-3--3-3--3-3-3--3-3--3-3-3--3-3--3-3-|---3-|
G----0-0-0-0--0-0--0-0-0--0-0--0-0-0--0-0--0-0-|---0-|
D----0-0-0-0--0-0--0-0-0--0-0--0-0-0--0-0--0-0-|---0-|
A----2-0-0-0--0-0--0-0-2--2-2--2-2-2--3-3--2-2-|---2-|
E--3-------2--2-3--3-3-0--0-0--0-0-0-----------|-3---|
   ^                                             ^This starts the
   |----------------------------------------regeneration of chords

"And do you remember...How you lied to me?"

CHORUS II

2. Played with just base notes.

   d d d u d  d d  d d d  d d  d d d  d d  d d   d d
e----3-3-3-------------------------------------|---3-------|
B----3-3-3-------------------------------------|---3-  <---|I prefer
G----0-0-0-------------------------------------|---0-------|     doing
D----0-0-0-------------------------------------|---0-------|   this chorus
A----2-----0--0-0--0-0-2--2-2--2-2-2--3-3--2-2-|---2-------|
E--3-------2--2-3--3-3-0--0-0--0-0-0--0-0--0-0-|-3---------|
                                      ^ ^  ^ ^These last 4 opens
                                        don't have to be played.  It
                               would just be 3-3--2-2 on the A string.

After the second chorus.
e--------------------------|
B-------------------fast---|
G--------------------|-----| That's an arrow |
D--------------------V-----|                 V
A--2--2-2--2-2-2-2--1-3----|
E--0--0-0--0-0-0-0--1-1----| Play a bunch of times
  pm..............
                     "No!"

Then...            ???????????????????????
e-------------[3]---------------3--------3-|----3-|
B-------------[3]---------3---------3---3--|----3-|
G-------------[0]-----0------0--------0----|----0-|
D-------------[2]-------2---------2--------|----0-|
A-2--2-2--2-2-[3]--3-----------------------|----2-|
E-0--0-0--0-0------------------------------|--3---|
  pm.........                                 ^ CHORUS again

ENDING
e------------------------------|------------------|
B------------------------------|------------------|
G---repeat a few times---------|------------------|
D------------------------------|------------------|
A----2---2---2--2---2---2---2--|---2---2---2~~~---|
E--3-0-3-0-3-0--0-3-0-3-0-3-0--|-3-0-3-0-3-0~~~---|

Sounds like a bass and acoustic guitar part for a few seconds
THEN
e--4~~~------------------------|
B--4~~~------------------------|
G--6~~~------------------------|
D--6~~~------------------------|
A--4~~~------------------------|
E--4~~~------------------------|
          "So kiss me again!"

   d  d  d u d u d  d u d  d  d d d d d d d d   d
e--3--3--3-3-3-3-2--2-2-3--3------------------|-3-|
B--3--3--3-3-3-3-3--3-3-3--3------------------|-3-|
G--0--0--0-0-0-0-2--2-2-0--0------------------|-0-|
D--2--2--2-2-2-2-0--0-0-0--0------------------|-2-|
A--3--3--3-3-3-3--------2--2--3-3-3-3-3-3-3-0-|-3-|
E-----------------------3--3--1-1-1-1-1-1-1---|---|
                              pm...........     ^ repeat again

Want the lyrics?  Go here:
http://members.cox.net/defgav/paw/lyrics.html
They seem 100% right.
Comments