Pavement - Transport Is Arranged Chords & Tabs

 

Transport Is Arranged Chords & Tabs

Pavement Chords & Tabs

Version: 1 Type: Tab 1 rating
1 star 2 stars 3 stars 4 stars 5 stars
comments

Transport Is Arranged Tab

   
#----------------------------------PLEASE NOTE---------------------------------#
#This file is the author's own work and represents their interpretation of the #
#song. You may only use this file for private study, scholarship, or research. #
#------------------------------------------------------------------------------#

BAND:  PAVEMENT
SONG:  TRANSPORT IS ARRANGED
ALBUM: BRIGHTEN THE CORNERS

Tabbed by: gzuf

RIFF:
e -----------------------------
B -----------------------------
G -----------------------------
D -------------7-------------7-
A -5-----5-7-9---9-7-5-7-7/9---
E ---5-7-----------------------


BRIDGE:

Part A:
D C# C B (2x)

Part B:
B D (4x)

Second Guitar over Part B (4x):

e -7-6-----7-6-----7-6---6-10-9-10-12-
B -----7-6-----7-6-----7--------------
G ------------------------------------
D ------------------------------------
A ------------------------------------
E ------------------------------------
(This might be wrong - correct me please)

Part C:
B A# - B A# - B A# D (4x)


RIFF:
E -----------------------------
B -----------------------------
G -----------------------------
D -------------7-------------7-
A -5-----5-7-9---9-7-5-7-7/9---
E ---5-7-----------------------
[ Tab from: http://www.guitartabs.cc/tabs/p/pavement/transport_is_arranged_tab.html ]
________________________________________________
Corrections: hennendreck@gmail.com


******************************************************************************************
#----------------------------------PLEASE NOTE---------------------------------#
#This file is the author's own work and represents their interpretation of the #
#song. You may only use this file for private study, scholarship, or research. #
#------------------------------------------------------------------------------#

SONG: Transport is Arranged
ARTIST: pavement
ALBUM: Brighten The Corners (track 3)

standard tuning

VERSE
C#       F#                             
C#       C#(riff 1)
C#       F#               
C#       C#

CHORUS
D#m F# C# Bb G# F# monster riff

VERSE

start CHORUS
D#m F# C#  C  B  Bb

C# C B Bb repeat 3x

Breakdown -Bb

Bb Bb Bb A Bb Bb Bb Bb A Bb Bb Bb Bb A C# C# C# C# repeat

VERSE

CHORUS               


Riff 1
E--------------
B-6-4---4------
G-----6---6----

Monster Riff
D-------------6-----------6--
A-4-----4-6-8---8-6-4-6-8----
E---4-6----------------------


SnakefacesliM



Scissor Proof Records mother fucker
Comments