Pavement - Shady Lane Chords & Tabs

 

Shady Lane Chords & Tabs

Pavement Chords & Tabs

Version: 1 Type: Tab 0 ratings
1 star 2 stars 3 stars 4 stars 5 stars
comments

Shady Lane Tab

Pavement, Shady Lane.
 Tabbed by Adam Carrel, adam.carrel@btinternet.com.
  
Ok I've seen a few different versions of this song, but I don't
think any of them have tabbed the intro correctly.
I haven't put down the chords for the rest of the song, they can
be found elsewhere.

[ Tab from: http://www.guitartabs.cc/tabs/p/pavement/shady_lane_tab.html ]
e-----------------------------------------------------
B-----------------------------------------------------
G-----------------------------------------------------
D------------------------------------------0---0-0---0
A-----5---5-5---5-------2---2-2---2----2-2---2-----2--
E-3-3---3-----3-----0-0---0-----0---------------------


e------------------
B------------------
G------------------
D-----2---2-2---2--
A-3-3---3-----3----
E------------------

 
:: Ultimate Guitar Archive :: 
http://www.ultimate-guitar.com 



Comments