Pavement - In The Mouth Of A Desert Chords & Tabs

 

In The Mouth Of A Desert Chords & Tabs

Pavement Chords & Tabs

Version: 3 Type: Tab 0 ratings
1 star 2 stars 3 stars 4 stars 5 stars
comments

In The Mouth Of A Desert Tab

Tab by conniekreski
in a mouth a desert - pavement - s & e
tuning : CGDGBE
note : this is just the intro of the song but it sounds perfect.


 ---------------------------------------------------------------|
 --8-5-0-3---3---0--------0-0---4---4(4)5-5-5-7---7-7-7-5---5-5-|
 --0-0-0-0---0-0-3--------3-3---0---0-0-0-0-0-5---5-5-5-5---5-5-|
 --0-----0-----0-4----------4-4-x---x-x-x-x-x-5---5-5-5-5---5-5-|
(0)-------(0)----4------------4/5---5-5-5-5-5-0---0-0-0-0---0-0-|
 -------------------------------------0(0-0-0)------------------|
[ Tab from: http://www.guitartabs.cc/tabs/p/pavement/in_the_mouth_of_a_desert_tab_ver_3.html ]
 -------------------------------------------------------------------------------- ...
 --8-5-0-3---3---0--------0-0---4---4-------------7-7-7-7-7-7-7-7-5-5-5-5-5-5-5-5 ...
 --0-0-0-0---0-0-3--------3-3---0---0-------------5-5-5-5-5-5-5-5-5-5-5-5-5-5-5-5 ...
 --0-----0-----0-4----------4-4-x---x-------------5-5-5-5-5-5-5-5-5-5-5-5-5-5-5-5 ...
(0)-------(0)----4------------4/5---5-5---------0-0-0-0-0-0-0-0-0-0-0-0-0-0-0-0-0 ... 0
 -------------------------------------0------------------------------------------ ... 0
                                                  |                              |
                                                  |-----------2 times------------|
Comments