Paula Cole - I Dont Want To Wait Chords & Tabs

 

I Dont Want To Wait Chords & Tabs

Paula Cole Chords & Tabs

Version: 1 Type: Tab 0 ratings
1 star 2 stars 3 stars 4 stars 5 stars
comments

I Dont Want To Wait Tab

I DON"T WANNA WAIT
Paula Cole

johnsantos_17@yahoo.com

Standard Tuning	(EADGBE)
Capo on 4th fret

Intro:
"so open up.."

E-------------
B--3--3--1--3-
G--0--0--0--0-play 2x
D--2--0--2--0-
A--3--2--0--2-
E-----------3-

E-2--5-5-5--3-2--       |-3--5-5-5--3-3--
B-3--3-3-3--3-3--       |-3--3-3-3--3-3--
G-2--2-2-2--2-2--play 2x|-0--0-0-0--0-0--
D-0--0-0-0--0-0--       |-0--0-0-0--0-0--
A----------------       |-2--2-2-2--2-2--
E----------------       |-3--3-3-3--3-3--

Verse:
"she had two babies.."

E--2--2----3---3--
B--3--3----3---3--
G--2--2----0---0--
D--0--0----0---0--
A----------2---2--
E----------3---3--

E-2-2---2-2--3-
B-3-3---3-2--3-
G-2-2---2-2--0-
D-0-0---4-2--0-
A-------2-4--2-
E------------3-
[ Tab from: http://www.guitartabs.cc/tabs/p/paula_cole/i_dont_want_to_wait_tab.html ]
E--2-2--3--|--5-
B--3-2--3--|--3-
G--2-2--0--|--0-
D--4-2--0--|--0-
A--2-4--2--|--2-
E-------3--|--3-

Chorus:
"i dont wanna wait.."

E-2--2--2--2--|-3--3--0-----
B-3--3--3--2--|-3--3--3-----
G-2--2--2--2--|-0--0--0-----play 2x
D-0-----4--2--|-0--0--2-----
A----4--2--0--|-2--0--2-----
E-------------|-3--2--0-----

Adlib:

E-2--5-5-5--3-2--       |-3--5-5-5--3-3--
B-3--3-3-3--3-3--       |-3--3-3-3--3-3--
G-2--2-2-2--2-2--play 2x|-0--0-0-0--0-0--
D-0--0-0-0--0-0--       |-0--0-0-0--0-0--
A----------------       |-2--2-2-2--2-2--
E----------------       |-3--3-3-3--3-3--

Bridge:

E--0-0---0-0-|-0--0--2--
B--3-3---3-3-|-3--3--3--
G--0-0---0-0-|-0--0--2--
D--2-2---0-0-|-2--0--0-- play 2x
A--3-3---2-2-|-3--2-----
E--------3-3-|----3-----

=====w&_17=====
Comments