Paula Cole - Feelin Love Chords & Tabs

 

Feelin Love Chords & Tabs

Paula Cole Chords & Tabs

Version: 1 Type: Bass Tab 0 ratings
1 star 2 stars 3 stars 4 stars 5 stars
comments

Feelin Love Bass Tab

Intro:
G--------------------------------------------------------------------|
D----3-5-3----3-5-3----1-3-1----1-3-1-3----3-5-3----3-5-3-5----------|
A--5--------5--------3--------3----------5--------5------------------|
E--------------------------------------------------------------------|
[ Tab from: http://www.guitartabs.cc/tabs/p/paula_cole/feelin_love_btab.html ]
G--------------------------------------------------------------------|
D--1-----1-1---3---------3-3---1--------1-1--------3-5-3----3-5-3-5--|
A----1-3-----3-------3-5-----3------1-3-----3----5--------5----------|
E--------------------------------------------------------------------|

Verse/Ref.
G--------------------------------------------------------------------|
D----3-5-3----3-5-3----1-3-1----1-3-1-3----3-5-3----3-5-3-5----------|
A--5--------5--------3--------3----------5--------5------------------|
E--------------------------------------------------------------------|
Comments