Paul Wright - Walking On Water Surfah Girl Chords & Tabs

 

Walking On Water Surfah Girl Chords & Tabs

Paul Wright Chords & Tabs

Version: 1 Type: Bass Tab

Walking On Water Surfah Girl Bass Tab

Walking on water (surfah girl) by Paul Wright

Tabbed By: Drew Fish
E-mail: microfish89@yahoo.com

Tuning: Standard

Pre-Chorus (Bass in at 0:10)
G|-----------------------------|
D|-----------------------------|
A|--7--5-5--5-3-3-----7-5-3-3--|
E|----------------3-2----------|

Chorus				Ending 1			
G|------------------------|	G|--------------------|	
D|------------------------|	D|--------------------|	
A|--7-7--9-9--10-10--3-3--|	A|--7-7--9-9--10-10\--|	
E|------------------------|	E|--------------------|	
					
					Ending 2
					G|------------------------|
					D|------------------------|
					A|--7-7--9-9--10-10-------|
					E|-------------------8-\--|

Verse 1
Imagine wakin up...
G|----------------------------|
D|----------------------------|
A|--7-7--9-9--10-10-----------|
E|-------------------8-7-5-3--|  (x4)
[ Tab from: http://www.guitartabs.cc/tabs/p/paul_wright/walking_on_water_surfah_girl_btab.html ]
Verse 2
Face up toes in the sand...
G|-------------------------------------------7------|
D|-----------------------------------------9---7-9--|
A|--7-7--9-9--10-10-------7-7--9-9--10-10-----------|
E|-------------------8-8----------------------------|

Bridge
Remember all the days... (slide at 1:41)
G|----------------------------------------------------------------|
D|----------------------------------------------------------------|
A|-------7--5-5--3-3-------7-5-3--/15--7--5-5--3-3------7-5--5-3--|
E|--/12\--------------3-2---------------------------3-2-----------|

Outro						
G|-----------------------------|      G|--------------------|
D|-----------------------------|      D|--------------------|
A|--7--5-5--5-3-3-------7-5-3--|      A|--7--5-5--3-3-------|
E|-----------------3-2---------| (x2) E|---------------3-2--|(x4)
End on the second to last note (3)

Order
Pre-Chorus
Chorus + Ending 1
Verse 1
Pre-Chorus
Chorus
Verse 2
Bridge
Pre-Chorus
Outro

On the Bridge, the slide starts at 1:41
Bass comes in at the Pre-Chorus at 0:10