Paul Wright - Come Around Chords & Tabs

 

Come Around Chords & Tabs

Paul Wright Chords & Tabs

Version: 1 Type: Bass Tab

Come Around Bass Tab

Come Around - Paul Wright

Tabbed By: Drew Fish
E-mail: microfish89@yahoo.com

Tuning: Standard

Intro	In @ 0:05
G|---------------|
D|---------------|
A|--77-----------|
E|-----77-99-55--|

Verse 1
G|---------------|
D|---------------|
A|--77-----------|
E|-----77-99-55--|(x4)
[ Tab from: http://www.guitartabs.cc/tabs/p/paul_wright/come_around_btab.html ]
Pre-Chorus						Pre-Chorus ENDING
G|---------------------------------|	G|------------------------|
D|--8-9-8--------------------------|	D|--8-9-8-----------------|
A|--------9------0-0-0--2----------|	A|--------9------0-0-000--|
E|----------9--2----------0-0-0-0--|	E|----------9--2----------|

Chorus				Chorus ENDING
G|-------------------|     G|---------------------|
D|-------------------|     D|---------------------|
A|--777--------------|     A|-----------00000000--|
E|------777-999-555--|(x2) E|--22222222-----------|

Verse 2
G|------------------|
D|------------------|
A|--11-11-----------|
E|--------77-99-55--|(x4)



Order
Intro
Verse 1
Pre-Chorus + ENDING
Chorus + ENDING
Verse 2
Pre-Chorus (No ENDING)
Chorus x6
(see Note)
Chorus x6

Note: Bass doesn’t play from: 2:11 - 2:21