Paul Weller - Brand New Start Chords & Tabs

 

Brand New Start Chords & Tabs

Paul Weller Chords & Tabs

Version: 1 Type: Tab 0 ratings
1 star 2 stars 3 stars 4 stars 5 stars
comments

Brand New Start Tab

   
old but good song, first tab, the usual stuff.

    G       D       Em
e|----------------------------------------------------------------------------|
B|------3-------3--------0----------------------------------------------------|
G|----0---0---2---2----0---0---0---0------------------------------------------|
D|----------0-----------------------------------------------------------------|
A|------------------h2--------------------------------------------------------|
E|--3------------------------0---2--------------------------------------------|

x2 for intro then
    G       D       Em
e|----------------------------------------------------------------------------|
B|------3-------3--------0----------------------------------------------------|
G|----0---0---2---2----0---0---0---0------------------------------------------|
D|----------0-----------------------------------------------------------------|
A|------------------h2--------------------------------------------------------|
E|--3------------------------0---2--------------------------------------------|
[ Tab from: http://www.guitartabs.cc/tabs/p/paul_weller/brand_new_start_tab.html ]
   G        D       Em
e|----------------------------------------------------------------------------|
B|------3-------3--------0----------------------------------------------------|
G|----0---0---2---2----0---0---0---0------------------------------------------|
D|----------0-----------------------------------------------------------------|
A|------------------h2--------------------------------------------------------|
E|--3------------------------0---2--------------------------------------------|

    G       D       Em
e|----------------------------------------------------------------------------|
B|------3-------3--------0----------------------------------------------------|
G|----0---0---2---2----0---0---0---0------------------------------------------|
D|----------0-----------------------------------------------------------------|
A|------------------h2--------------------------------------------------------|
E|--3------------------------0---2--------------------------------------------|

   G        D        C
e|----------------------------------------------------------------------------|
B|------3-------3---------1-------1-------------------------------------------|
G|----0---0---2---2-----0---0---0---0-----------------------------------------|
D|----------0-----------------------------------------------------------------|
A|-------------------3--------3-----------------------------------------------|
E|--3-------------------------------------------------------------------------|

this carries on through the verse and chorus. you have the bridge where rather than 
you strum the G, D and Em. sounds ok to me but im sure others can do it better, so if you 
then let me know at mozzay@hotmail.com

cheers all
Comments