Paul Simon - Me And Julio Chords & Tabs

 

Me And Julio Chords & Tabs

Paul Simon Chords & Tabs

Version: 1 Type: Tab 0 ratings
1 star 2 stars 3 stars 4 stars 5 stars
comments

Me And Julio Tab

   
 A D			A	D	A	   E	D
|?----------------------------------------------------------
|?-----------5----------------------------------------------
|?2/4-2-2-4/6-6-4-2-2-4-2----2-22-4-2-4-2-4/6-6-4-2-4---2---
|?-----------------4------2-4------------------------222----
|?-----------------------4----------------------------------
|?----------------------------------------------------------
[ Tab from: http://www.guitartabs.cc/tabs/p/paul_simon/me_and_julio_tab.html ]
|------
|------
|22-4-2
|------
|------
|------
 
 A		  	A     E   D   E     A	D A E
|-------------------------------------------------------
|--------5----------------------------------------------
|-4-2-4/6-6-4-2-4-2---2-4/6-6-4-2-2-2-4/6-4-2-2---------
|------------------2-4----------------------------------
|-------------------------------------------------------
|-------------------------------------------------------
	  A     E   D   E     A  D  A  E
|--------------------------------
|--------------------------------
|-------2-4/6-6-4-2-2-2-4/6-4-2-2
|----2-4-------------------------
|-2h4----------------------------
|--------------------------------
Comments