Paul Oakenfold - Ready Steady Go Chords & Tabs

 

Ready Steady Go Chords & Tabs

Paul Oakenfold Chords & Tabs

Version: 1 Type: Tab 0 ratings
1 star 2 stars 3 stars 4 stars 5 stars
comments

Ready Steady Go Tab

Paul Oakenfold - Ready steady go (album version)

this song is one half step down, dropped D
but this tab is for standard with dropped dflat, there is only one riff the
dropped Dflat is needed for.

clean w/ wah
Riff 1

e--------------|-----------------------------------|
b------4---6---|-----------------------------------|
G--6---4---6---|--6---4---6------------------------|
D--6---2---4---|--6---2---4------------------------|
A--4-----------|--4---2---4------------------------|
Df-------------|-----------------------------------|


play until 0:20


at 0:23 Play w/ delay until 0:52

e-----------|
b-----------|
G-----------|
D------6----|
A-----------|
Df----------|

at :52 with slight distorsion (2 guitars arr for one)

riff2

e--------------------------|-------------------------|
b--------------------------|-------------------------|
G--------------------------|-------------------------|
D--------------------------|-------------------------|
A--------------------------|----4---4--4--4---6--7---|
Df---0--0-0-0--2--0--3--0--|-------------------------|
[ Tab from: http://www.guitartabs.cc/tabs/p/paul_oakenfold/ready_steady_go_tab.html ]
at 1:06

riff 3

e----9--9--7--9--7///4--|--4-4h5---4-4h5--4h5-4h5-|
b-----------------------|-------------------------|
G-----------------------|-------------------------|
D-----------------------|-------------------------|

1:22

play riff 1

1:37

e-----------|----------|-----------|-------|
b-----------|----b9b---|-----------|-------|
G-----------|----------|-----------|-------|
D------6----|----------|------6----|-------|
A-----------|----------|-----------|-------|
Df----------|----------|-----------|-------|

repaeat until

2:08

play riff 2

2:22

Riff 3

2:38

Break

3:00

Play riff 1

e-----------|----------|-----------|-------|
b-----------|----b9b---|-----------|-------|
G-----------|----------|-----------|-------|
D------6----|----------|------6----|-------|
A-----------|----------|-----------|-------|
Df----------|----------|-----------|-------|

at 3:37

Play riff 3
and above riff until end

There one more part I hear but cannot figure out.  This is my first tab so the
format is not great but enjot anyhow.
Send corrections to
tdxmofo@hotmail.com
Comments