Paul Mccartney - Shes Leaving Home Chords & Tabs

 

Shes Leaving Home Chords & Tabs

Paul Mccartney Chords & Tabs

Version: 1 Type: Bass Tab 0 ratings
1 star 2 stars 3 stars 4 stars 5 stars
comments

Shes Leaving Home Bass Tab

Song: She's Leaving Home
Version: Red Square Version
Instrument: Bass
Bassist: Paul McCartney

You don't play in all the song , I'm tabbing this from what I saw on
Red Square DVD

Chorus:
G-------------------------------------|
D-------------------------------------|
A--7-----7-7----7----7-7-----7-----5--|
E-------------------------------------|
[ Tab from: http://www.guitartabs.cc/tabs/p/paul_mccartney/shes_leaving_home_btab.html ]
The last Chorus:
G-------------------------------------|
D-------------------------------------|
A--7-------7------------7-----7----5--|
E--------7------7--0--7---------------|

Ending (Byyyye-Byyyyyye...):
G-----------------------|
D-----------------------|
A---------4----7--------|
E--5---5-----------0----|

Here it is! As I promised....If you have any Beatles song to 
suggest me to tab, e-mail me at love_saby_4ever@hotmail.com.
Comments