Paul Mccartney - Jet Chords & Tabs

 

Jet Chords & Tabs

Paul Mccartney Chords & Tabs

Version: 1 Type: Tab

Jet Tab

Begining:
e|---------------------3     ----------------------|
B|-----------------3/5--     ----------------------|
G|----------------------     ----------------------|
D|----------------------     ----------------------|
A|-----3-5-----3-5------     -----3-5-----3-5------|
E|-7-7-----7-7---------- x2  -7-7-----7-7----------|

Verse:
e|-----------------------|
B|-----------------------|
G|-----------------------|
D|-----------------------|
A|-----------------------|
E|-7-7-7-7-7-7-7-7-7-7-7-| goes on until it says "and jet"
[ Tab from: http://www.guitartabs.cc/tabs/p/paul_mccartney/jet_tab.html ]
Then......
e|xxx-x-xxx--------|
B|xxx-x-xxx--------|
G|xxx-x-xxx--------|
D|xxx-x-xxx--------|
A|xxx-x-xxx----5-3-|
E|xxx-x-xxx-7-7----| the verse repeats 3 times

    ~~~~~~~~~
e|-----        solo        -7-7-9-9-7-7-5-|
B|-7/9-                    -7-7-9-9-7-7-5-|
G|-7/9-                    -7-7-9-9-7-7-5-|
D|-----                    -7-7-9-9-7-7-5-|
A|-----                    ---------------|
E|----- A Couple times     ---------------|x3
repeat verse as many times as paul sings it then do the solo twice the do the verse twice

      END:
e|----------------------------------|
B|----10----------------------------|
G|-/11--11-10-----------------------|
D|------------11-10-----------------|
A|------------------11-10-----------|
E|------------------------11-10/8/6-|