Paul Mccartney - Jenny Wren Chords & Tabs

 

Jenny Wren Chords & Tabs

Paul Mccartney Chords & Tabs

Version: 3 Type: Tab

Jenny Wren Tab

   
--------------------------------------------------------------

    PAUL MCCARTNEY - JENNY WREN From CHAOS AND CREATION album.
                     Released on 13th September 2005.

--------------------------------------------------------------

    Tabbed by:PJVillanueva



It looks that Paul recorded the guitar part and then slowed it
down a whole tone, maybe in order to sing  high parts a little
more comfortably, so that you must tune your guitar a whole step 
down If you want to match the recording or else keep the standard 

                         e .....d
                         B .....A
                         G .....F     
                         d .....C
                         A .....G
                         e .....d


tuning and play it a tone higher than the recorded version to 
keep at least the chord shapes he uses for the song, which are 
very similar to the ones he used for BLACKBIRD. It seems that
some people think he might have used some alternate tuning. I 
don't think so.



...............................................

Intro
   
Verse 1
Like so many girls   Jenny Wren could sing 
But a broken heart   took her soul away
 
Verse 2
Like the other girls   Jenny Wren took wing 
She could see the world   and it's foolish ways
 
Chorus 1
How  we  spend our days   casting  love aside 
Loosing  site of life   day  by  day 

Verse 3
She saw poverty   breaking all the home 
Wounded warriors   took her song away 


Solo


Verse 4
But the day will come   Jenny Wren will sing 
When this broken world   mends its foolish ways 

Chorus 2
Now we  spend our days   catching  up on life 
All because of you   Jenny Wren

Chorus 3 (2nd half) 
You saw  who we are   Jenny Wren

 
Coda
...............................................




  Intro
                                     
  C               G               Am  Asus4
e|0------ ------- ------- -------|------- ------- ------- -------|
B|--------1-------3--------------|1-H-3-------3------------------|
G|--------0---------------0------|--------2---2-------2---2------|
D|--------2---------------0------|--------2---2-------2---2------|
A|3------------------------------|0------------------------------|
E|----------------3--------------|----------------0--------------|

                                  Am  Asus4     Gsus4 G       F
e|------- ------- ------- -------|------- ------- ------- -------|
B|3-----------3------------------|1-H-3-----------1-P-0----------|
G|--------2---2-------2---2------|--------2-------0-----------1--|
D|--------2---2-------2---2------|--------2-------------------3--|
A|0------------------------------|0------------------------------|
E|----------------0--------------|----------------3--------------|

                                                  G
e|------- ------- ------- -------|------- ------- ------- -------|
B|-------------------------------|----------------0--------------|
G|----2---2-------2--------------|2-----------------------0------|
D|----3---3---------------3------|--------3---------------0------|
A|------------------------3------|--------3----------------------|
E|1---------------1--------------|1---------------3--------------|

Asus2 Am
e|------- ------- ------- -------|------- ------- ------- -------|
B|0-H-1--------------------------|1-----------1------------------|
G|----2---2---2-------2---2------|--------2---2-------2---2------|
D|----2---2---2-------2---2------|--------2---2-------2---2------|
A|0------------------------------|0------------------------------|
E|----------------0--------------|----------------0--------------|


e|------- ------- ------- -------|------- ------- ------- -------|
B|1-----------1------------------|1-----------1------------------|
G|--------2---2-----------2------|--------2---2-------2---2------|
D|--------2---2-----------2------|--------2---2-------2---2------|
A|0------------------------------|0------------------------------|
E|----------------0--------------|----------------0--------------|



  Verses

  C               G               Am  Asus4
e|0------ ------- ------- -------|------- ------- ------- -------|
B|--------1-------3--------------|1-H-3-------3------------------|
G|--------0---------------0------|--------2---2-------2---2------|
D|--------2---------------0------|--------2---2-------2---2------|
A|3------------------------------|0------------------------------|
E|----------------3--------------|----------------0--------------|
1 Like            so              many        girls, 
2 Like            the             other       girls, 
3 She             saw             poverty 
4 But             the             day     will    come  

                                  Am  Asus4     Gsus4 G       F
e|------- ------- ------- -------|------- ------- ------- -------|
B|3-----------3------------------|1-H-3-----------1-P-0----------|
G|--------2---2-------2---2------|--------2-------0-----------1--|
D|--------2---2-------2---2------|--------2-------------------3--|
A|0------------------------------|0------------------------------|
E|----------------0--------------|----------------3--------------|
                                  Jenny       Wren        could 
                                  Jenny       Wren        took 
                                  breaking         all the    home 
                                  Jenny       Wren    will    sing 

                                                  G
e|------- ------- ------- -------|------- ------- ------- -------|
B|-------------------------------|----------------0--------------|
G|----2---2-------2--------------|2-----------------------0------|
D|----3---3---------------3------|--------3---------------0------|
A|------------------------3------|--------3----------------------|
E|1---------------1--------------|1---------------3--------------|
  sing                            but             a
  wing                            She             could 
                                  Wounded  
                                  When            this 

Asus2 Am
e|------- ------- ------- -------|------- ------- ------- -------|
B|0-H-1--------------------------|1-----------1------------------|
G|----2---2---2-------2---2------|--------2---2-------2---2------|
D|----2---2---2-------2---2------|--------2---2-------2---2------|
A|0------------------------------|0------------------------------|
E|----------------0--------------|----------------0--------------|
  broken      heart,
  see the     world, 
  warriors 
  broken      world  

                  G                   Cm
e|------- ------- ------- -------|------- ------- ------- -------|  
B|1---------------3--------------|3-/-4-------4------------------|
G|--------2---------------0------|--------0---0-------0---0------|
D|--------2---------------0------|------------------------0------|
A|0---------------2--------------|2-/-3--------------------------|
E|-------------------------------|----------------3--------------|
  took            her             soul away
  and             it's            foolish ways
  took            her             song    away
  mends           its             foolish ways 


e|------- ------- ------- -------|------- ------- ------- -------|   
B|4-----------4------------------|4-----------4------------------|
G|--------0---0-------0---0------|--------0---0-------0---0------|
D|------------------------0------|------------------------0------|
A|3------------------------------|3------------------------------|
E|----------------3--------------|----------------3--------------|




e|------- ------- ------- -------|  
B|4-----------4------------------|
G|--------0-----------0---0------|
D|------------------------0------|
A|3------------------------------|
E|----------------3--------------|



  Choruses 1 & 2

  Cm 
e|------- ------- ------- -------|------- ------- ------- -------|
B|8-----------8------------------|4-----------4------------------|
G|--------0---0-------0---0------|--------0---0-------0---0------|
D|-------------------------------|-------------------------------|
A|6---------------6--------------|3---------------3--------------|
E|-------------------------------|-------------------------------|
  How                             we   
  Then                            we

  Fm              C               Ab
e|1------ ------- 3------ -------|4------ ----4-- ------- -------|
B|--------1---------------1------|--------1-----------1---1------|
G|-------------------------------|--------------------1---1------|
D|3---------------2--------------|1---------------1--------------|
A|-------------------------------|-------------------------------|
E|-------------------------------|-------------------------------|
  spend           our             days 
  spend           our             days
  
  G7
e|1------ ----1-- ------- -------|------- ------- ------- -------|
B|--------0----------------------|0-----------0------------------|
G|--------0-----------0---0------|--------0-----------0---0------|
D|--------------------0---0------|--------0-----------0---0------|
A|-------------------------------|-------------------------------|
E|3---------------3--------------|3---------------3--------------|
  casting 
  catching 
  
  Cm              G7              Cm
e|------- ------- ------- -------|------- ------- ------- -------|
B|4---------------6--------------|8-----------8------------------|
G|--------0---------------0------|--------0---0-------0---0------|
D|-------------------------------|-------------------------------|
A|3---------------5--------------|6---------------6--------------|
E|-------------------------------|-------------------------------|
  love            aside
  up              on              life



  C
e|------- ------- ------- -------|------- ------- ------- -------| 
B|8-----------8------------------|8-----------8------------------|
G|--------0---0-------0---0------|--------0---0-------0---0------|
D|-------------------------------|-------------------------------|
A|7---------------7--------------|7---------------7--------------|
E|-------------------------------|-------------------------------|
  Losing,  
  All                             be......

  Fm              C               Ab
e|1------ ------- 3------ -------|4------ ----4-- ------- -------|
B|--------1---------------1------|--------1---1-------1---1------|
G|-------------------------------|--------1---1-------1---1------|
D|3---------------2--------------|1---------------1--------------|
A|-------------------------------|-------------------------------|
E|-------------------------------|-------------------------------|
  site           of               life 
  cause          of               you
 
  G7
e|1------ ----1-- ------- -------|------- ----1-- ------- -------|
B|--------0---0------------------|0-----------0------------------|
G|--------0---0-------0---0------|--------0---0-------0---0------|
D|--------------------0---0------|--------0-----------0---0------|
A|-------------------------------|-------------------------------|
E|3---------------3--------------|3---------------3--------------|
  day                             by 
  Jenny 

  Cm
e|------- ------- ------- -------|------- ------- ------- -------|   
B|4-----------4------------------|4-----------4------------------|
G|--------0---0-------0---0------|--------0---0-------0---0------|
D|------------------------0------|------------------------0------|
A|3------------------------------|3------------------------------|
E|----------------3--------------|----------------3--------------|
  day
  Wren


e|------- ------- ------- -------|------- ------- ------- -------|   
B|4-----------4------------------|4-----------4------------------|
G|--------0---0-------0---0------|--------0---0-------0---0------|
D|------------------------0------|------------------------0------|
A|3------------------------------|3------------------------------|
E|----------------3--------------|----------------3--------------|



  Solo         

                                  G
e|------- ------- ------- -------|------- ------- ------- -------|  
B|4-----------4------------------|3------------------------------|   
G|--------0---0-------0---0------|--------0-------0-------0------|         
D|------------------------0------|--------0---------------0------|
A|3---------------3--------------|2------------------------------| 
E|-------------------------------|----------------3--------------|

e|------- ------- ------- -------|------- ------- ------- -------|
B|4---~--------------------------|3------------------------------|
G|-------------------------------|----------------0--------------|
D|-------------------------------|-------------------------------|
A|-------------------------------|-------------------------------|
E|-------------------------------|-------------------------------|



  Am
e|------- ------- ------- -------|------- ------- ------- -------|  
B|0H1---------1------------------|1-----------1------------------|
G|------------2-------2---2------|------------2-------2---0------|
D|--------2---2-------2---2------|--------2---2-------2---0------|
A|0---------------0--------------|0---------------0--------------|
E|-------------------------------|-------------------------------|

e|------- ------- ------- -------|------- ------- ------- -------|
B|0H1---------------------------3P1------------------------------|
G|-------------------------------|-------------------------------|
D|-------------------------------|-------------------------------|
A|-------------------------------|-------------------------------|
E|-------------------------------|-------------------------------|



  Cm                              G
e|------- ------- ------- -------|------- ------- ------- -------|  
B|4-----------4------------------|3------------------------------|
G|--------0---0-------0---0------|--------0-------0-------0------|
D|------------------------0------|--------0---------------0------|
A|3------------------------------|2------------------------------|
E|----------------3--------------|----------------3--------------|

e|------- ------- ------- -------|------- ------- ------- -------|
B|4-------------------6-------464\3--~---------------------------|
G|-------------------------------|----------------0--------------|
D|-------------------------------|-------------------------------|
A|-------------------------------|-------------------------------|
E|-------------------------------|-------------------------------|



  Am
e|------- ------- ------- -------|------- ------- ------- -------|  
B|0H1----------------------------|1------------------------------|
G|------------2-----------2------|------------2------------------|
D|--------2-----------2---2------|--------2-----------2----------|
A|0---------------0--------------|0---------------0--------------|
E|-------------------------------|-------------------------------|

e|------- ------- ------- -------|------- ------- ------- -------|
B|0H1----------------------------|8-----686-------4-------3------|
G|-------------------------------|-------------------------------|
D|-------------------------------|-------------------------------|
A|-------------------------------|-------------------------------|
E|-------------------------------|-------------------------------|



  Cm                              G
e|------- ------- ------- -------|------- ------- ------- -------|  
B|4-----------4------------------|3------------------------------|
G|--------0---0-------0---0------|--------0-------0-------0------|
D|------------------------0------|--------0---------------0------|
A|3------------------------------|2------------------------------|
E|----------------3--------------|----------------3--------------|
  Ooooooooooooooooooooooooooooooooooooooooooooooooooooooooooooooo
e|------- ------- ------- -------|------- ------- ------- -------|
B|4---~--------------------------|3------------------------------|
G|-------------------------------|----------------0--------------|
D|-------------------------------|-------------------------------|
A|-------------------------------|-------------------------------|
E|-------------------------------|-------------------------------|



  Am                              F
e|------- ------- ------- -------|------- ------- ------- -------|
B|1-----------1------------------|1-----------1------------------|
G|------------2-------2---2------|------------2-------2---2------|
D|--------2---2-------2---2------|--------3---3-------3---3------|
A|0---------------0--------------|--------3-----------3---3------|
E|-------------------------------|1---------------1--------------|  
  ooooooooooooooooooooooooooooooooooooooooooooooooooooooooooooooo
e|------- ------- ------- -------|------- ------- ------- -------|
B|0H1----------------------------|------------------------1------|
G|-------------------------------|-------------------------------|
D|-------------------------------|-------------------------------|
A|-------------------------------|-------------------------------|
E|-------------------------------|-------------------------------|



  C
e|------- ------- ------- -------|------- ------- ------- -------|
B|1-----------1------------------|1-----------1------------------|
G|--------0---0-------0---0------|--------0---0-------0---0------|
D|--------2---2-------2---2------|--------2---2-------2---2------|
A|3------------------------------|3------------------------------|
E|----------------3--------------|----------------3--------------|
  oooooooooooooooooooooooooooooooooooooooooooooohhhhhhhhh
e|------- ------- ------- -------|------- ------- ------- -------|
B|1---~--------------------------|-------------------------------| 
G|-------------------------------|-------------------------------|
D|-------------------------------|-------------------------------|
A|-------------------------------|-------------------------------|
E|-------------------------------|-------------------------------|


[ Tab from: http://www.guitartabs.cc/tabs/p/paul_mccartney/jenny_wren_tab_ver_3.html ]
  Cm
e|------- ------- ------- -------|------- ------- ------- -------|  
B|8-----------8------------------|4-----------4------------------|  
G|--------0---0-------0---0------|--------0---0-------0---0------|
D|-------------------------------|-------------------------------|
A|6---------------6--------------|3---------------3--------------|
E|-------------------------------|-------------------------------|
   
e|------- ------- ------- -------|------- ------- ------- -------|
B|9--~---------------------------|------------------------9-H-10\|
G|-------------------------------|-------------------------------|
D|-------------------------------|-------------------------------|
A|-------------------------------|-------------------------------|
E|-------------------------------|-------------------------------|


 
  Fm              C               Ab
e|1------ ------- 3------ -------|4------ ----4-- ------- -------|
B|--------1---------------1------|--------1---1-------1---1------|
G|--------1---------------3------|------------1-------1---1------|
D|3---------------2--------------|1---------------1--------------|
A|-------------------------------|-------------------------------|
E|-------------------------------|-------------------------------|
  
e|------- ------- ------- -------|------- ------- ------- -------|
B|6---------------8--------------|9--~---------------------------|
G|-------------------------------|-------------------------------|
D|-------------------------------|-------------------------------|
A|-------------------------------|-------------------------------|
E|-------------------------------|-------------------------------|


   
  G7
e|1------ ----1-- ------- -------|------- ------- ------- -------|
B|--------0---0------------------|0-----------0------------------|
G|--------0---0-------0---0------|--------0---0-------0---0------|
D|--------------------0---0------|--------0---0-------0---0------|
A|-------------------------------|-------------------------------|
E|3---------------3--------------|3---------------3--------------|
 
e|------- ------- ------- -------|------- ------- ------- -------|
B|6-------------------3-------4--|6--~------------------464-P-3--|
G|-------------------------------|-------------------------------|
D|-------------------------------|-------------------------------|
A|-------------------------------|-------------------------------|
E|-------------------------------|-------------------------------|


    
  Cm              G7              Cm
e|------- ------- ------- -------|------- ------- ------- -------|
B|4------------/--6--------------|8-----------8------------------|
G|--------0---------------0------|--------0---0-------0---0------|
D|-------------------------------|-------------------------------|
A|3------------/--5--------------|6---------------6--------------|
E|-------------------------------|-------------------------------|
  
e|------- ------- ------- -------|------- ------- ------- -------|
B|4---------------6--------------|8--~---------------------------|
G|-------------------------------|-------------------------------|
D|-------------------------------|-------------------------------|
A|-------------------------------|-------------------------------|
E|-------------------------------|-------------------------------|



  C                       
e|------- ------- ------- -------|------- ------- ------- -------|
B|8-----------8------------------|8-----------8------------------|
G|--------0---0-------0---0------|--------0---0-------0---0------|
D|-------------------------------|-------------------------------|
A|7---------------7--------------|7---------------7--------------|
E|-------------------------------|-------------------------------|
 

  
  Fm              C               Ab
e|1------ ------- 3------ -------|4------ ----4-- ------- -------|
B|--------1---------------1------|--------1---1-------1---1------|
G|--------1---------------3------|--------1---1-------1---1------|
D|3---------------2--------------|1---------------1--------------|
A|-------------------------------|-------------------------------|
E|-------------------------------|-------------------------------|
  
e|------- ------- ------- -------|------- ------- ------- -------|
B|8--~---------------------------|-------------------------------|
G|-------------------------------|5------------------------------|
D|-------------------------------|-------------------------------|
A|-------------------------------|-------------------------------|
E|-------------------------------|-------------------------------|


  
  G7
e|1------ ----1-- ------- -------|------- ----1-- ------- -------|
B|--------0---0------------------|0-----------0------------------|
G|--------0---0-------0---0------|--------0---0-------0---0------|
D|--------------------0---0------|--------0-----------0---0------|
A|-------------------------------|-------------------------------|
E|3---------------3--------------|3---------------3--------------|
  
e|------- ------- ------- -------|------- ------- ------- -------|
B|6---------------8--------------|9--~----------686-----\-4-----/|
G|-------------------------------|-------------------------------|
D|-------------------------------|-------------------------------|
A|-------------------------------|-------------------------------|
E|-------------------------------|-------------------------------|


  
  Cm
e|------- ------- ------- -------|------- ------- ------- -------|  
B|4-----------4------------------|4-----------4------------------|
G|--------0---0-------0---0------|--------0---0---0-------0------|
D|------------------------0------|------------------------0------|
A|3------------------------------|3------------------------------|
E|----------------3--------------|----------------3--------------|
  
e|------- ------- ------- -------|------- ------- ------- -------|
B|6--~---------------------------|------------------------6----86\
G|-------------------------------|7-----------8------------------|
D|-------------------------------|-------------------------------|
A|-------------------------------|-------------------------------|
E|-------------------------------|-------------------------------|


                                  (.

e|------- ------- ------- -------|------- ------- ------- -------|  
B|4-----------4------------------|4------------------------------|
G|--------0---0-------0---0------|-------------------------------|
D|------------------------0------|-------------------------------|
A|3---------------3--------------|3------------------------------|
E|-------------------------------|-------------------------------|

e|------- ------- ------- -------|------- ------- ------- -------|
B|4-----~------------------------|-------------------------------|
G|-------------------------------|-------------------------------|
D|-------------------------------|-------------------------------|        
A|-------------------------------|-------------------------------|  
E|-------------------------------|-------------------------------| 


  Chorus 3 (2nd half)

  C
e|------- ------- ------- -------|------- ------- ------- -------|
B|8-----------8------------------|8-----------8------------------|
G|--------0-----------0---0------|--------0-----------0---0------|
D|-------------------------------|-------------------------------|
A|7---------------7--------------|7---------------7--------------|
E|-------------------------------|-------------------------------|
   You                            saw   
e|------- ------- ------- -------|------- ------- ------- -------|
B|8---~--------------------------|-------------------------------|
G|-------------------------------|5------------------------------|
D|-------------------------------|-------------------------------|
A|-------------------------------|-------------------------------|
E|-------------------------------|-------------------------------|


  
  Fm              C               Ab
e|1------ ------- 3------ -------|4------ ----4-- ------- -------|
B|--------1---------------1------|--------1---1-----------1------|
G|-------------------------------|--------1---1-----------1------|
D|3---------------2--------------|1---------------1--------------|
A|-------------------------------|-------------------------------|
E|-------------------------------|-------------------------------|
  who             we              are   
e|------- ------- ------- -------|------- ------- ------- -------|
B|----------------5--------------|6--------------86-----\-4-----\|
G|5------------------------------|-------------------------------|
D|-------------------------------|-------------------------------|
A|-------------------------------|-------------------------------|
E|-------------------------------|-------------------------------|


 
  G7
e|1------ ----1-- ------- -------|------- ----1-- ------- -------|
B|--------0---0------------------|0-----------0------------------|
G|--------0---0-------0---0------|--------0---0-------0---0------|
D|--------------------0---0------|--------0-----------0---0------|
A|-------------------------------|-------------------------------|
E|3---------------3--------------|3---------------3--------------|
  Jenny 
e|------- ------- ------- -------|------- ------- ------- -------|
B|3------------------------------|-------------------------------|
G|-------------------------------|0------------------------------|
D|-------------------------------|-------------------------------|
A|-------------------------------|-------------------------------|
E|-------------------------------|-------------------------------|


 
  Cm
e|------- ------- ------- -------|------- ------- ------- -------|   
B|4-----------4------------------|4-----------4------------------|
G|--------0---0-------0---0------|--------0---0-------0---0------|
D|------------------------0------|------------------------0------|
A|3------------------------------|3------------------------------|
E|----------------3--------------|----------------3--------------|
  Wren
e|------- ------- ------- -------|------- ------- ------- -------|
B|1------------------------------|-------------------------------|
G|-------------------------------|-------------------------------|
D|-------------------------------|-------------------------------|
A|-------------------------------|-------------------------------|
E|-------------------------------|-------------------------------|


  Coda
   
  Cm                              G
e|------- ------- ------- -------|------- ------- ------- -------|  
B|4-----------4------------------|3------------------------------|
G|--------0---0-------0---0------|--------0---0---0-------0------|
D|------------------------0------|--------0---0-----------0------|
A|3------------------------------|2------------------------------|
E|----------------3--------------|----------------3--------------|



  Am
e|------- ------- ------- -------|------- ------- ------- -------|  
B|0H1---------1------------------|1-----------1------------------|
G|------------2-------2---2------|------------2-------2---0------|
D|--------2---2-------2---2------|--------2---2-------2---0------|
A|0---------------0--------------|0---------------0--------------|
E|-------------------------------|-------------------------------|



  Cm                              G
e|------- ------- ------- -------|------- ------- ------- -------|  
B|4-----------4------------------|3------------------------------|
G|--------0---0-------0---0------|--------0---0---0-------0------|
D|------------------------0------|--------0---0-----------0------|
A|3------------------------------|2------------------------------|
E|----------------3--------------|----------------3--------------|  

e|------- ------- ------- -------|------- ------- ------- -------|
B|4-------------------6-------464\3--~---------------------------|
G|-------------------------------|----------------0--------------|
D|-------------------------------|-------------------------------|
A|-------------------------------|-------------------------------|
E|-------------------------------|-------------------------------|



  Am
e|------- ------- ------- -------|------- ------- ------- -------|  
B|0H1---------1------------------|1-----------1------------------|
G|------------2-------2---2------|------------2-------2---0------|
D|--------2---2-------2---2------|--------2---2-------2---0------|
A|0---------------0--------------|0---------------0--------------|
E|-------------------------------|-------------------------------|
                                                              Ooo
e|------- ------- ------- -------|------- ------- ------- -------|
B|1-----------------------~------|-------------------------------|
G|-------------------------------|-------------------------------|
D|-------------------------------|-------------------------------|
A|-------------------------------|-------------------------------|
E|-------------------------------|-------------------------------|   



  Cm                              G
e|------- ------- ------- -------|------- ------- ------- -------|  
B|4-----------4------------------|3------------------------------|
G|--------0---0-------0---0------|--------0---0---0-------0------|
D|------------------------0------|--------0---0-----------0------|
A|3------------------------------|2------------------------------|
E|----------------3--------------|----------------3--------------|
  ooooooooooooooooooooooooooooooooooooooooooooooooooooooooooooooo
e|------- ------- ------- -------|------- ------- ------- -------|
B|4------------------------------|3------------------------------|
G|-------------------------------|----------------0--------------|
D|-------------------------------|-------------------------------|
A|-------------------------------|-------------------------------|
E|-------------------------------|-------------------------------|



  Am                              F
e|------- ------- ------- -------|------- ------- ------- -------|
B|1-----------1------------------|1-----------1------------------|
G|------------2-------2---2------|------------2-------2---2------|
D|--------2---2-------2---2------|--------3---3-------3---3------|
A|0---------------0--------------|--------3-----------3---3------|
E|-------------------------------|1---------------1--------------|  
  oooooooooooooooooooooooooooooooooooooooooooooohhhhhhhhhh
e|------- ------- ------- -------|------- ------- ------- -------|
B|1------------------------------|1-----------------------------3P
G|-------------------------------|-------------------------------|
D|-------------------------------|-------------------------------|
A|-------------------------------|-------------------------------|
E|-------------------------------|-------------------------------|



  C
e|------- ------- ------- -------|------- ------- ------- -------|
B|1-----------1------------------|1-----------1------------------|
G|--------0---0-------0---0------|--------0---0-------0---0------|
D|--------2---2-------2---2------|--------2---2-------2---2------|
A|3------------------------------|3------------------------------|
E|----------------3--------------|----------------3--------------|

e|------- ------- ------- -------|------- ------- ------- -------|
B|1------------------------------|-------------------------------|
G|-------------------------------|-------------------------------|
D|-------------------------------|-------------------------------|
A|-------------------------------|-------------------------------|
E|-------------------------------|-------------------------------|



  Ab                              F
e|------- ------- ------- -------|------- ------- ------- -------|
B|------------4------------------|1------------------------------|
G|5-------------------5--5--\----|------------2------------------|
D|--------6-----------6--6--\----|--------3-----------3-------/--|
A|--------6-----------6--6--\----|--------3-----------3-------/--|
E|4------------------------------|1------------------------------|
  Dooooooo    doo                 Dooooooo    doo


  Ab                              F
e|------- ------- ----0-- -------|------- ------- ------- -------|
B|------------4------------------|1------------------------------|
G|5----------------------5--\----|------------2------------------|
D|--------6--------------6--\----|--------3-----------3---3---/--|
A|--------6--------------6--\----|--------3-----------3---3---/--|
E|4------------------------------|1------------------------------|
  dooooooo    doo     doo         dooooooo    Doo


    Ab                              F
e|------- ------- ----0-- -------|------- ------- ------- -------|
B|------------4------------------|1------------------------------|
G|5------------------------------|------------2------------------|
D|--------6--------------6--\----|--------3---3-------3---3------|
A|--------6--------------6--\----|--------3---3-------3---3------|
E|4------------------------------|1------------------------------|
  dooooooo    doo     doo         dooooooo        Doooo
e|------- ------- ------- -------|------- ------- ------- -------|
B|------------4-------5----------|-------------------------------|
G|5------------------------------|5-------------\-2--------------|
D|-------------------------------|-------------------------------|
A|-------------------------------|-------------------------------|
E|-------------------------------|-------------------------------|


 (.
  C
e|------- ------- ------- -------|------- ------- ------- -------|
B|1------------------------------|-------------------------------|
G|0------------------------------|-------------------------------|
D|2------------------------------|-------------------------------|
A|3------------------------------|-------------------------------|
E|3------------------------------|-------------------------------|
  doooooooooooooooooooooooooooooo
e|------- ------- ------- -------|------- ------- ------- -------|
B|-------------------------------|-------------------------------|
G|5---------------~--------------|-------------------------------|
D|-------------------------------|-------------------------------|
A|-------------------------------|-------------------------------|
E|-------------------------------|-------------------------------|








        B  Bend
        R  Release
        /  Slide up
        \  Slide down
        H  Hammer-on
        P  Pull-off
        ~  Vibrato
        +  Harmonic
        x  Mute note
        .  Play note like a dot in standard notation
        ^  Ties two notes together
        (. Pause