Paul Mccartney - Jenny Wren Chords & Tabs

 

Jenny Wren Chords & Tabs

Paul Mccartney Chords & Tabs

Version: 2 Type: Tab 0 ratings
1 star 2 stars 3 stars 4 stars 5 stars
comments

Jenny Wren Tab

   
-------------------------------------------------------------------------------
			     JENNY WREN - Paul Mac Cartney
-------------------------------------------------------------------------------
Tabbed by Boris Gets
Email: boris.gets@tele2.fr

Tuning: DAFCGD


e|---0-------|-----------|----------|------------|----------|----------------|
B|-------3---|--1h3-3----|--3--3-3--|--1h3--1p0--|----------|------0---------|
G|-----0---0-|-----2---2-|----2---2-|-----2----0-|--2--2-2--|--2-----0-------|
D|-----------|-----------|----------|------------|----3---3-|----3-----------|
A|---3-------|--0--------|--0-------|--0---------|----------|----------------|
E|-------3---|-------0---|------0---|-------3----|--1---1---|--1---3---------|

e|-----------|----------|----------|----------|------------------------------|
B|---0h1-1---|--1--1-1--|--1--1-1--|--1--1-1--|------------------------------|
G|------2--2-|----2---2-|----2---2-|----2---2-|------------------------------|
D|-----------|----------|----------|----------|------------------------------|
A|---0-------|--0-------|--0-------|--0-------|------------------------------|
E|--------0--|------0---|------0---|------0---|------------------------------|


e|---0-------|-----------|----------|------------|----------|----------------|
B|-------3---|--1h3-3----|--3--3-3--|--1h3--1p0--|----------|------0---------|
G|-----0---0-|-----2---2-|----2---2-|-----2----0-|--2--2-2--|--2-----0-------|
D|-----------|-----------|----------|------------|----3---3-|----3-----------|
A|---3-------|--0--------|--0-------|--0---------|----------|----------------|
E|-------3---|-------0---|------0---|-------3----|--1---1---|--1---3---------|


e|-----------|----------|-----------|----------|----------|------------------|
B|---0h1-1---|--1---3---|--3s4-4--4-|--4--4-4--|--4--4-4--|--4--4-4----------|
G|------2--2-|----2---0-|-----0---0-|----0---0-|----0---0-|----0---0---------|
D|-----------|----------|-----X---0-|----X---0-|----X---0-|----X---0---------|
A|---0-------|--0---2---|--2s3------|--3-------|--3-------|--3---------------|
E|--------0--|----------|-------3---|------3---|------3---|------3-----------|

e|-----------|----------|--1---3---|--4-------|--1-------|-------------------|
B|---8-------|--4-------|----------|-----1-1--|-----0-0--|--0--0-0-----------|
G|-----00-00-|----00-00-|---(1)--1-|----1---1-|----0---0-|----0---0----------|
D|-----------|----------|--3---2---|--1---1---|----------|-------------------|
A|---6---6---|--3---3---|----------|----------|----------|-------------------|
E|-----------|----------|----------|----------|--3---3---|--3---3------------|
[ Tab from: http://www.guitartabs.cc/tabs/p/paul_mccartney/jenny_wren_tab_ver_2.html ]
e|-----------|----------|----------|----------|--1---3---|--4----------------|
B|---4---6---|--8-------|--8-------|--8-------|----------|-----1-1-----------|
G|-----0---0-|----00-00-|----00-00-|---00--00-|---(1)--1-|----1---1----------|
D|-----------|----------|----------|----------|--3---2---|-------------------|
A|---3----5--|--6---6---|--7---7---|--7---7---|----------|--1---1------------|
E|-----------|----------|----------|----------|----------|-------------------|

e|---1-------|----------|----------|-----------------------------------------|
B|------0-0--|--0--0-0--|--4-------|--4--4-4---------------------------------|
G|-----0---0-|----0---0-|-----0-0--|---(0)--0--------------------------------|
D|-----------|----------|----X---0-|----X---0--------------------------------|
A|-----------|----------|--3-------|--3--------------------------------------|
E|---3---3---|--3---3---|------3---|------3----------------------------------|


e|-----------|----------|----------|----------|       
B|---4-------|--3-------|--1-------|--1-------|       
G|------0-0--|-----0-0--|-----2-2--|-----2-2--|( 2x)  
D|-----X---0-|----0---0-|----2---2-|----2---2-|       
A|---3-------|--1---1---|--0-------|--0-------|       
E|-------3---|----------|------0---|------0---|       

e|-----------|----------|----------|----------|----------|-------------------|       
B|---4-------|--3-------|--1-------|--1-------|--1--1-1--|--1--1-1-----------|        
G|------5-5--|-----0-0--|-----2-2--|-----2-2--|----0---0-|----0---0----------|   
D|-----5---5-|----0---0-|----2---2-|----3---3-|---(2)--2-|----2---2----------|        
A|---3-------|--1---1---|--0-------|----------|--3-------|--3----------------|        
E|-------3---|----------|------0---|--1---1---|------3---|------3------------| 


e|-----------|----------|-------0--|----------|-------0--|----------|--0-----|
B|------4----\--1---1---/-----4----\--1----1--\-----4----/--1----1--|--1-----|
G|---5----5--\----2-----/--5-------\-----2----\--5-------/-----2----|--0-----|
D|-----6---6-\---3---3--/----6---6-\----3---3-\----6---6-/----3---3-|--2-----|
A|-----------|----------|----------|----------|----------|----------|--3-----|
E|---4---4---\--1---1---/--4---4---\--1---1---\--4---4---/--1---1---|--------|


| /  slide up
| \  slide down
| h  hammer-on
| p  pull-off
| X  mute string

These are the guitar parts of the jewel of Macca's last album.
Put them in order and prepare to sweat a little.
This should be the right tab for this song - every sound matches perfectly with the
recording. For the tab notation does'nt allow much subtilities, listen carefully the
recording to catch the feeling of Paul's picking mode. But I think you've done it yet,
twice more than once.
So try playing this way : thumb for main beat and index for second beat on E, A & D
strings, index also for melody strings on E, B and G strings. Index should firmly
"brush" the strings when playing second beat in order to make close strings sound
together(this is what I've tried to suggess on the tab with braketed notations when
possible). The trick is to keep left hand in an appropriate chord position when
playing to avoid wrong notes(according to the transposition due to the tuning, main
chords are : C, G, F, Am, Cm - watch this one in its first appearance! - and Fm).
In a same way, muffle the strings that would not be in tune.
Enjoy!

UPDATE 14th october: changes in Cm parts (add 2 position with alt. mute string - thanks Waynus of Uranus!)
===============================================================================
Comments