Paul Mccartney - Goodnight Tonight Chords & Tabs

 

Goodnight Tonight Chords & Tabs

Paul Mccartney Chords & Tabs

Version: 1 Type: Tab 0 ratings
1 star 2 stars 3 stars 4 stars 5 stars
comments

Goodnight Tonight Tab

                             Paul McCartney
                            Goodnight Tonight

Intro:
|-3-3-3-3---3-3---3-3-3-3---3-3-----5-5-5-5---5-5---5-5-5-5---5-5-|
|-3-3-3-3---3-3---3-3-3-3---3-3-----5-5-5-5---5-5---5-5-5-5---5-5-|
|-4-4-4-4---4-4---4-4-4-4---4-4-----5-5-5-5---5-5---5-5-5-5---5-5-|
|-5-5-5-5---5-5---5-5-5-5---5-5-----7-7-7-7---7-7---7-7-7-7---7-7-|
|-----------------------------------------------------------------|
|-----------------------------------------------------------------|

|-3-3-3-3---3-3---3-3-3-3---3-3-----5-5-5-5---5-5---5-5-5-5---5-5-|
|-3-3-3-3---3-3---3-3-3-3---3-3-----5-5-5-5---5-5---5-5-5-5---5-5-|
|-4-4-4-4---4-4---4-4-4-4---4-4-----5-5-5-5---5-5---5-5-5-5---5-5-|
|-5-5-5-5---5-5---5-5-5-5---5-5-----7-7-7-7---7-7---7-7-7-7---7-7-|
|-----------------------------------------------------------------|
|-----------------------------------------------------------------|

Guitar Solo:
|---------------------------|
|--------5------------------|
|-2-------------------------|
|---2-----------------------|
|---------------------------|
|-----0---------------------|

|------------------------------------------------9b10b9----|
|-x-x-------------9-----------12---10b12b10-------------12-|
|---------------9-----------9---------------12-------------|
|----------9h11--------9h11--------------------------------|
|----------------------------------------------------------|
|----------------------------------------------------------|

|--------------------------9b10-9--10--12--9--10-12--|
|----------9-----------12----------------------------|
|--------9-----------9-------------------------------|
|---9h11--------9h11---------------------------------|
|----------------------------------------------------|
|----------------------------------------------------|

|----15p14p12-----15p14p12-----12h14-12-----12h14-12--|
|-14-----------14-----------14-----------14-----------|
|-----------------------------------------------------|
|-----------------------------------------------------|
|-----------------------------------------------------|
|-----------------------------------------------------|

|-------------12---------------------------|
|----------12---------------12-------------|
|----13-14------------13-14----13-13h14-13-|
|-14---------------14----------------------|
|------------------------------------------|
|------------------------------------------|

Don't say it,
|-------------------|
|-------------------|
|------------99-8-6-|
|-------------------|
|-------------------|
|-------------------|

Don't say it,
|---------------------|
|---------------------|
|-----------4--6p4----|
|-------------------7-|
|---------------------|
|---------------------|

Say anything but don't say goodnight tonight.

Don't say it,
|-------------------|
|-------------------|
|------------99-8-6-|
|-------------------|
|-------------------|
|-------------------|

Don't say it,
|-------------------|
|-------------------|
|-----------66-4----|
|-----------------7-|
|-------------------|
|-------------------|

Say anything but don't say goodnight tonight.
[ Tab from: http://www.guitartabs.cc/tabs/p/paul_mccartney/goodnight_tonight_tab.html ]
|------------------3-------|
|-3h5p3---3----------5-5---|
|-------4---4----4---------|
|--------------------------|
|--------------------------|
|--------------------------|

|-x--x-x-x---x--x-x-x---x--x-x-x---x--x-x-x---x--x-x-x-|
|------------------------------------------------------|
|------------------------------------------------------|
|------------------------------------------------------|
|------------------------------------------------------|
|------------------------------------------------------|

|------------|
|------------|
|----------1-|
|-----2-2----|
|-2-4--------|
|------------|

Acoustic:
|-3-3-3-3---3-3---3-3-3-3---3-3-----5-5-5-5---5-5---5-5-5-5---5-5-|
|-3-3-3-3---3-3---3-3-3-3---3-3-----5-5-5-5---5-5---5-5-5-5---5-5-|
|-4-4-4-4---4-4---4-4-4-4---4-4-----5-5-5-5---5-5---5-5-5-5---5-5-|
|-5-5-5-5---5-5---5-5-5-5---5-5-----7-7-7-7---7-7---7-7-7-7---7-7-|
|-----------------------------------------------------------------|
|-----------------------------------------------------------------|
|                                                                 |
|Electric:                                                        |
|-----------------------------------------------------------------|
|------------------------------7-b-8------------------------------|
|--------------------------7-9------------------------------------|
|-------------------7-9-10----------------------------------------|
|------------7-9-10-----------------------------------------------|
|-----------------------------------------------------------------|

Acoustic Guitar solo:
|------------------------------------------78-8h10-----|
|-----------------------------88-77---78-10------------|
|-----------------------77-99-------9------------------|
|------------77-99-1010--------------------------------|
|-77-99-1010-------------------------------------------|
|------------------------------------------------------|

|-10-10b12-7----------------------------------------|
|------------10-7---778877-----------10--7-8-7------|
|-----------------9-------9977-----------------9----|
|-----------------------------10109-----------------|
|---------------------------------------------------|
|---------------------------------------------------|

|-----------------------------------------------------------------------|
|-77-88-1010-88-77-88-1010-88-77-88-1010-88-77-88-1010-88-77-88-1010-88-|
|-----------------------------------------------------------------------|
|-----------------------------------------------------------------------|
|-----------------------------------------------------------------------|
|-----------------------------------------------------------------------|
|-----------------------------------------------------------------------|

|-7-10--88-77---------------|
|-------------1010-88-77----|
|------------------------9--|
|---------------------------|
|---------------------------|
|---------------------------|

Electric:
|------------------------------------------------|
|-7-8p7----------------------------7-8p7---------|
|-------9-7-9----6-7p6---------6-7-------9-7-9---|
|----------------------9-7-9---------------------|
|------------------------------------------------|
|------------------------------------------------|
Comments