Paul Mccartney - Band On The Run Chords & Tabs

 

Band On The Run Chords & Tabs

Paul Mccartney Chords & Tabs

Version: 2 Type: Tab 0 ratings
1 star 2 stars 3 stars 4 stars 5 stars
comments

Band On The Run Tab

   
                                              Band On The Run
                                           Paul McCartney & Wings


Intro:

 Guitar I
|-10h12--10\------5h7--5\-2---------------------------------------15\14------------|
|-10h12--10\------5h7--5\-2---------------------------------------15\14--15---17---|
|------------------------------------------------------------------------14---16---|
|----------------------------------------------------------------------------------|
|----------------------------------------------------------------------------------|
|----------------------------------------------------------------------------------|
|Keyboard Tab for Guitar II
|----------------------------------------------------------------------------------|
|--------------------------------10b12r10b12r10b12r10b12r10b12r10b12r10------------|
|----------------------------------------------------------------------------------|
|----------------------------------------------------------------------------------|
|----------------------------------------------------------------------------------|
|----------------------------------------------------------------------------------|



 Guitar I
|-------------------------------------10h12--10\------5h7--5\-2---|
|-------------------------------------10h12--10\------5h7--5\-2---|
|-----------------------------------------------------------------|
|-----------------------------------------------------------------|
|-----------------------------------------------------------------|
|-----------------------------------------------------------------|
|Keyboard Tab for Guitar II
|-----------------------------------------------------------------|
|-8b10r8b10r8b10r8b10r8b10r8b10r8---------------------------------|
|-----------------------------------------------------------------|
|-----------------------------------------------------------------|
|-----------------------------------------------------------------|
|-----------------------------------------------------------------|



Guitar I
|----------------------------------15\14---------------------------------------------|
|----------------------------------15\14--15---17------------------------------------|
|-----------------------------------------14---16------------------------------------|
|------------------------------------------------------------------------------------|
|------------------------------------------------------------------------------------|
|------------------------------------------------------------------------------------|
|Keyboard Tab for Guitar II
|------------------------------------------------------------------------------------|
|-10b12r10b12r10b12r10b12r10b12r10b12r10-------------8b10r8b10r8b10r8b10r8b10r8b10r8-|
|------------------------------------------------------------------------------------|
|------------------------------------------------------------------------------------|
|------------------------------------------------------------------------------------|
|------------------------------------------------------------------------------------|



|-15---14\12--12\10-------10--12---15------------15---14\12--12\10-------10--12---15--|
|-15---14\12--12\10-------10--12---15------------15---14\12--12\10-------10--12---15--|
|-------------------------------------------------------------------------------------|
|-------------------------------------------------------------------------------------|
|-------------------------------------------------------------------------------------|
|-------------------------------------------------------------------------------------|



(My apologies if the lyrics are incorrect)


(From "Stuck inside the four walls...")

 Guitar I
|-----14h15p14--------------------------------------------12h14p12------------------------------------|
|-----------------------------------------------------------------------------------------------------|
|-----------------------------------------------------------------------------------------------------|
|-----------------------------------------------------------------------------------------------------|
|-----------------------------------------------------------------------------------------------------|
|-----------------------------------------------------------------------------------------------------|
|Keyboard Tab for Guitar II
|-----------------------------------------------------------------------------------------------------|
|----------------10b12r10b12r10b12r10b12r10b12r10b12r10---------------8b10r8b10r8b10r8b10r8b10r8b10r8-|
|-----------------------------------------------------------------------------------------------------|
|-----------------------------------------------------------------------------------------------------|
|-----------------------------------------------------------------------------------------------------|
|-----------------------------------------------------------------------------------------------------|


(From "Never seeing no one...")

 Guitar I
|-12h14p12---------------------------------------------9h10p9---------------------------------------|
|---------------------------------------------------------------------------------------------------|
|---------------------------------------------------------------------------------------------------|
|---------------------------------------------------------------------------------------------------|
|---------------------------------------------------------------------------------------------------|
|---------------------------------------------------------------------------------------------------|
|Keyboard Tab for Guitar II
|---------------------------------------------------------------------------------------------------|
|--------------10b12r10b12r10b12r10b12r10b12r10b12r10---------------8b10r8b10r8b10r8b10r8b10r8b10r8-|
|---------------------------------------------------------------------------------------------------|
|---------------------------------------------------------------------------------------------------|
|---------------------------------------------------------------------------------------------------|
|---------------------------------------------------------------------------------------------------|



(From "Like you...")
|-2-------3------------2-------3-----------|
|-3-------3------------3-------3-----------|
|-2-------0------------2-------0-----------|
|-0-------0------------0-------0-----------|
|---------2--------------------2-----------|
|---------3--------------------3-----------|




Part 2:


Intro:
|-------------------------------------------------|-------------------------------------------------|
|-------------------------------------------------|-------------------------------------------------|
|-5-5-5\4--4-4---2-2--2------7-7-7-7-7-7\--4-4--4-|-5-5-5\4--4-4---2-2--2------7-7-7-7-7-7\--4-4--4-|
|-5-5-5\4--4-4---2-2--2------7-7-7-7-7-7\--4-4--4-|-5-5-5\4--4-4---2-2--2------7-7-7-7-7-7\--4-4--4-|
|-3-3-3\2--2-2---0-0--0------5-5-5-5-5-5\--2-2--2-|-3-3-3\2--2-2---0-0--0------5-5-5-5-5-5\--2-2--2-|
|-------------------------------------------------|-------------------------------------------------|

|--------------------|
|--------------------|
|-5-5-5\4--4-4---2-2-|
|-5-5-5\4--4-4---2-2-|
|-3-3-3\2--2-2---0-0-|
|--------------------|

[ Tab from: http://www.guitartabs.cc/tabs/p/paul_mccartney/band_on_the_run_tab_ver_2.html ]
Keyboard Tab:
|-12------15----------------15-17------15----------10/12---15/17--|
|-------------12-----15/17-----------------\12--------------------|
|-----------------------------------------------------------------|
|-----------------------------------------------------------------|
|-----------------------------------------------------------------|
|-----------------------------------------------------------------|


(From "If I ever get outta here...")
Guitar I
|-------------------------------------------------|-------------------------------------------------|
|-------------------------------------------------|-------------------------------------------------|
|-5-5-5\4--4-4---2-2--2------7-7-7-7-7-7\--4-4--4-|-5-5-5\4--4-4---2-2--2------7-7-7-7-7-7\--4-4--4-|
|-5-5-5\4--4-4---2-2--2------7-7-7-7-7-7\--4-4--4-|-5-5-5\4--4-4---2-2--2------7-7-7-7-7-7\--4-4--4-|
|-3-3-3\2--2-2---0-0--0------5-5-5-5-5-5\--2-2--2-|-3-3-3\2--2-2---0-0--0------5-5-5-5-5-5\--2-2--2-|
|-------------------------------------------------|-------------------------------------------------|

|--------------------|
|--------------------|
|-5-5-5\4--4-4---2-2-|
|-5-5-5\4--4-4---2-2-|
|-3-3-3\2--2-2---0-0-|
|--------------------|

Guitar II
|-5--5----------3-------------------------------------------------------------------------|
|---------5--------------/5---------------------------------------------------------------|
|------------4---------------5-7-5--------------11----/11---11-11---------11---9----------|
|----------------------------------5-7----------12----/12---12-12-----12--12---10---9-----|
|-------------------------------------------------------------------------------------12--|
|-----------------------------------------------------------------------------------------|



Part 3:


|------------------------------------|------------------------------------|--------------------|
|------------------------------------|------------------------------------|--------------------|
|---------------------7---7\---5-----|---------------------7---7\---5-----|--------------------|
|----------------5----7---7\---5-----|----------------5----7---7\---5-----|--------------------|
|-------3--5--7-------5---5\---3-----|-------3--5--7-------5---5\---3-----|-------3----------3-|
|-3--5-------------------------------|-3--5-------------------------------|-3--5-------3--5----|


Acoustic:

  C                Fmaj7              C                Fmaj7
|-0--0-0---0-0-0---0-0-0-0-0-0-0-0--|-0--0-0---0-0-0---0-0-0-0-0-0-0-0--|
|-1--1-1---1-1-1---1-1-1-1-1-1-1-1--|-1--1-1---1-1-1---1-1-1-1-1-1-1-1--|
|-0--0-0---0-0-0---2-2-2-2-2-2-2-2--|-0--0-0---0-0-0---2-2-2-2-2-2-2-2--|
|-2--2-2---2-2-2---3-3-3-3-3-3-3-3--|-2--2-2---2-2-2---3-3-3-3-3-3-3-3--|
|-3--3-3---3-3-3---3-3-3-3-3-3-3-3--|-3--3-3---3-3-3---3-3-3-3-3-3-3-3--|
|-----------------------------------|-----------------------------------|

          C                    Fmaj7
Well, the rain exploded with a mighty crash
                    C
As we fell into the sun,
        C                     Fmaj7
And the first one said to the second one there
                     Em
I hope you're having fun.

G           C    Em          Am
Band on the run, band on the run.


        Fmaj7          C
And the jailer man and sailor Sam
     Fmaj7
Were searching every one

        C    Fmaj7  C  Fmaj7  C    Fmaj7  C    Fmaj7
For the band on the run,      band on the run
C    Fmaj7  C  Fmaj7  C    Fmaj7  C    Fmaj7
Band on the run,      band on the run.



Well, the undertaker drew a heavy sigh
Seeing no one else had come,
|--------------------------------17\----|
|----------------------------/17-----\--|
|---------------------------------------|
|---------------------------------------|
|---------------------------------------|
|---------------------------------------|

And a bell was ringing in the village square
For the rabbits on the run.
Band on the run, band on the run.

And the jailer man and sailor Sam
Were searching every one
For the band on the run,
|------------------------8-8--8-8--5-----------|
|-------------------------------------8--5--8--|
|----------------------------------------------|
|----------------------------------------------|
|----------------------------------------------|
|----------------------------------------------|

band on the run
|------------------------8-8--8-8--5-----------|
|-------------------------------------8--5--8--|
|----------------------------------------------|
|----------------------------------------------|
|----------------------------------------------|
|----------------------------------------------|

Em   G   C      Em   C   Am

Slide Guitar:
|-/8-----------------------------------------------------|
|------10\8---------8-8-8--8/10\8-8----10\8-8---5--5/8---|
|--------------7/9---------------------------------------|
|--------------------------------------------------------|
|--------------------------------------------------------|
|--------------------------------------------------------|

For the band on the run,
|------------------------8-8--8-8--5-----------|
|-------------------------------------8--5--8--|
|----------------------------------------------|
|----------------------------------------------|
|----------------------------------------------|
|----------------------------------------------|

band on the run
|------------------------8-8--8-8--5-----------|
|-------------------------------------8--5--8--|
|----------------------------------------------|
|----------------------------------------------|
|----------------------------------------------|
|----------------------------------------------|

band on the run
|------------------------8-8--8-8--5-----------|
|-------------------------------------8--5--8--|
|----------------------------------------------|
|----------------------------------------------|
|----------------------------------------------|
|----------------------------------------------|

Well, the night was falling as the desert world
Began to settle down.
In the town they're searching for us every where
But we never will be found.

Band on the run,
|------------------------------------|
|--------------------8/10--10\8------|
|----------------7/9-------------9---|
|------------------------------------|
|------------------------------------|
|------------------------------------|

band on the run.
|---------------8\5--------------|
|--------------------8\5--8/10---|
|--------------------------------|
|--------------------------------|
|--------------------------------|
|--------------------------------|

And the county judge
|---------------------8-7-5-7---5------|
|-----------------------------8---5/8--|
|--------------------------------------|
|--------------------------------------|
|--------------------------------------|
|--------------------------------------|

who held a grudge
|----------------------5---3-------|
|-------------------/5-------5\----|
|----------------------------------|
|----------------------------------|
|----------------------------------|
|----------------------------------|


Outro:
band on the run
|------------------------8-8--8-8--5-----------|
|-------------------------------------8--5--8--|
|----------------------------------------------|
|----------------------------------------------|
|----------------------------------------------|
|----------------------------------------------|

band on the run
|------------------------8-8--8-8--5-----------|
|-------------------------------------8--5--8--|
|----------------------------------------------|
|----------------------------------------------|
|----------------------------------------------|
|----------------------------------------------|

Em   G   C
Comments