Paul Mauriat - Song For Anna Chords & Tabs

 

Paul Mauriat Chords & Tabs

Version: 1 Type: Tab 0 ratings
1 star 2 stars 3 stars 4 stars 5 stars
comments

Song For Anna Tab

   
                             Song For annA
                            Simplified Arrangement

Transcribed by Louis  amosco .Male 16

Pantera_101@yahoo.com

Gtr 1 - Tuning Standard 


Itong tab na to ay tama pakinngan nyo na lng
Ang instrument nah to io musta nga pala
Kay juvan


1/2\\===========================================

Figure 1
e|---------2------|--5------2-----|--2-----0----------|
B|-T------2---5-2--|------2-----2--|-------2-------2--|
G|-A----2----------|----2-----2----|-----2-------2----|
D|-B---------------|--------2------|-----------2------|
A|-----------------|-0-------------|--0---------------|
E|-----------------|---------------|------------------|

e|-----0-------------|-----------------|--------0---------|
B|-T---------3-----2-|--3------------0-|------0----3---0--|
G|-A-------4---------|------4---1--2---|----1-------------|
D|-B-----4------4----|----4-----4------|--------2---------|
A|-----2-------------|--2--------------|------------------|
E|-------------------|-----------------|--0---------------|

e|--4-------2------|--0--------------|---------------------|
B|-------0-------0-|------0--3-----0-|--3-----2----1-------|
G|-----1-------1---|----1-------1----|------2--------------|
D|----------2------|---------2-------|----2------2---------|
A|-----------------|-----------------|--0------------------|
E|--0--------------|--0--------------|---------------------|
     End Of Figure1
e|-----------------|----------2-------|--5-----4--------------|
B|---2-------------|-------2-----5--2-|------2-----2----------|
G|-------2------1--|--2--2------------|----2-----2------------|
D|-----2---2--4----|----------2-------|--------2--------------|
A|---0-------------|--0---------------|--0--------------------|
E|---------0-------|------------------|-----------------------|



e|-2-----0-----------|---0-------------|---------------------|
B|-----2-----2-------|---------3----2--|--3-------------0----|
G|---2-----2---------|-------4---------|-------4--1--2-------|
D|-0-----2-----------|-----4-----4-----|-----4----4----------|
A|-------------------|---2-------------|--2------------------|
E|-------------------|-----------------|---------------------|

e|---------0---------|--4-------2---------|--0----------------|
B|-------0----3--0---|-------0----------0-|------0--3---0-----|
G|-----1-------------|-----1---------1----|----1------1-------|
D|---------2---------|------------2-------|---------2---------|
A|-------------------|--------------------|-------------------|
E|--0----------------|--0-----------------|--0----------------|

e|----------------|--------0--2--3--|--2--2-4-5-----------------|
B|--3-----2-------|--2--------------|--3--3-5-7-----------------|
G|------2------1--|------2----------|--2------------------------|
D|----2-----------|----2------------|--0----------0----0--------|
A|----------2-----|--0-----4--------|---------------0-----------|
E|----------------|-----------------|---------------------------|

e|--4-5-7-----5---|---9----5------|--0-----------------|
B|--5-7-9-----7---|--------2--2-3-|--2---0-------------|
G|----------------|-----------2-4-|----2--2--1---------|
D|--------0-------|-----2--2------|------------4-------|
A|----------------|---0-----------|--0-----------------|
E|----------------|---------------|--------------------|
[ Tab from: http://www.guitartabs.cc/tabs/p/paul_mauriat/song_for_anna_tab.html ]
e|-----0--2-4----|---4-5---7--9---10-----9----7------|
B|--------0-5----|-----------------------------------|
G|-----1---------|---------7--9---11-----9----7------|
D|---------------|--------------------7--------------|
A|------------2--|---------7------0------------------|
E|--0------------|-0---------------------------------|


e|--10----9---7---9----|----2-4-5--------|-4-5-7---5--------|
B|---7-----------------|----3-5-7--------|-5-7-9------------|
G|--------9---7---9----|-----------------|------------------|
D|----------------7----|--0-------0---0--|-------0----------|
A|---0---------------0-|------------0----|------------------|
E|---------------------|-----------------|------------------|

e|-9----5--------|--0--------------------------|
B|------2--2--3--|--2----0---------------------|
G|---------2--4--|-----2---2--1----------------|
D|---2--2--------|---------------4-------------|
A|-0-------------|--0--------------------------|
E|---------------|-----------------------------|


E


|--------3-5-----|-------8---10--8--|-12-8---8------------|
B|----6----6-----|----12------------|------8---8----------|
G|---------3-----|-----------10-----|------------9--------|
D|--3------------|------------------|---------------------|
A|-----------3---|-8----------------|---------------------|
E|---------------|------------------|--8------------------|

e|----------0-----0--|--7--4---4---------------------------|
B|--8----------------|-------5---5---5---------------------|
G|----9--------------|-------------4--4----4---------------|
D|------10----10-----|------------------6----6-------------|
A|-------------------|--------------------------7----------|
E|-------------------|--0--------------------------0-------|

Repeat  Figure 1


Figure 2

e|---------2-----------|-5-----4-----|--0---------------------|
B|-------2----5--2-----|-----2-----2-|--------3---2-----------|
G|--2--2---------------|---2-----2---|------4-----------------|
D|---------2-----------|-------2-----|----4-------------------|
A|--0------------------|-0-----------|--2------4--------------|
E|---------------------|-------------|------------------------|


e|------------------|---------------|--------0--2--0------|
B|--3-----0---------|-----------0---|---2-3--2------------|
G|----------2--1----|------0--2--2--|---------------------|
D|-----4---------4--|----3----3-----|--------2------------|
A|--2---------------|---------3-----|---------------------|
E|------------------|--1------------|-0-------------------|

E |-----------------|--------2--------|--5--------------------|
B |-------0--2--0---|------2----5---2-|------8----6-----------|
G |-------1---------|-2--2------------|-----------------------|
D |---1-2-2---------|-----------------|----7---7----7---------|
A |-----------------|-0---------------|--8--------------------|
E |-0---------------|-----------------|-----------------------|


E |---------------|---------------|-------2--0----------------|
B |---------------|-2-------------|-----2------2--------------|
G |--8---7---5----|--------1------|---2-----------------------|
D |----7---7---7--|---2--4---4--2-|-------2-------------------|
A |---------------|-0-------------|-0-------------------------|
E |---------------|---------------|---------------------------|



E |---5-----------------|--------------|--*----------------|
B |-------8-------------|--------------|--*-2--------------|
G |---------------------|--8---7---5---|--*-2--------------|
D |-----7---7---7-------|----7---7---7-|--*-2--------------|
A |---8-----------------|--------------|--*-0--------------|
E |---------------------|--------------|--*----------------|


Kung Meron kyong comment pantera_101@yahoo.com
Plz rate diz tab
Comments