Paul Gilbert - Intense Rock Chords & Tabs

 

Intense Rock Chords & Tabs

Paul Gilbert Chords & Tabs

Version: 1 Type: Tab 0 ratings
1 star 2 stars 3 stars 4 stars 5 stars
comments

Intense Rock Tab

   
#----------------------------------PLEASE NOTE---------------------------------#
#This file is the author's own work and represents their interpretation of the #
#song. You may only use this file for private study, scholarship, or research. #
#------------------------------------------------------------------------------##
From: deanm@Sun.COM (Dean Myers)

PAUL  GILBERT
=============

     INTENSE ROCK - Sequences & Techniques
______________________________________________________________________________


Alternate Picking:


--------------12-----------||
--12--13--15------15--13---||
--------------------------o||
--------------------------o||
---------------------------||
---------------------------||
   ^   v   ^   v   ^   v

--------------12------12-----------||
--12--13--15------15------15--13---||
----------------------------------o||
----------------------------------o||
-----------------------------------||
-----------------------------------||
   ^   v   ^   v   ^   v   ^   v

--------------12--14--15--14--12-----------||
--12--13--15----------------------15--13---||
------------------------------------------o||
------------------------------------------o||
-------------------------------------------||
-------------------------------------------||
   ^   v   ^   v   ^   v   ^   v   ^   v

--------------12----------------------12--14--15--14--12-----------||
--12--13--15------15--13--12--13--15----------------------15--13---||
------------------------------------------------------------------o||
------------------------------------------------------------------o||
-------------------------------------------------------------------||
-------------------------------------------------------------------||
   ^   v   ^   v   ^   v   ^   v   ^   v   ^   v   ^   v   ^   v

---------------------------------------------------------------------||
--------------------------------------------------------11--12--14---||
---------------------------------9--10--12--10--12--14---------------||
----------------------9--10--12--------------------------------------||
------------7--9--10-------------------------------------------------||
--7--8--10-----------------------------------------------------------||
  ^  v   ^  v  ^   v  ^   v   ^  v   ^   v   ^   v   ^   v   ^   v

--------------------------------------15--17--19---||
--------------13--15--17--15--17--19---------------||
--12--14--16---------------------------------------||
---------------------------------------------------||
---------------------------------------------------||
---------------------------------------------------||


--------------------------------------------------------------------||
--------------------------------------------------------------------||
--------------------------------------------------------------------||
------------------------------------------9---------------9-10-12---||
----------8---------------8-10-12-8-10-12---12-10-8-10-12-----------||
--8-10-12---12-10-8-10-12-------------------------------------------||


----------------------------------------------------------------------||
------------------------------------------10---------------10-12-13---||
----------9---------------9-10-12-9-10-12----12-10-9-10-12------------||
--9-10-12---12-10-9-10-12---------------------------------------------||
----------------------------------------------------------------------||
----------------------------------------------------------------------||


--------------10----------------------10--12--13---||
--10--12--13------13--12--10--12--13---------------||
---------------------------------------------------||
---------------------------------------------------||
---------------------------------------------------||
---------------------------------------------------||


--13--12--10------10--12--13--12--10---------------||
--------------13----------------------13--12--10---||
---------------------------------------------------||
---------------------------------------------------||
---------------------------------------------------||
---------------------------------------------------||


--8-10-12---10-12-13-12-10-----------------------------------------------|
----------8----------------13-12-10-13-12-10----10-12-13-12-10-----------|
---------------------------------------------12----------------12-10-9---|
-------------------------------------------------------------------------|
-------------------------------------------------------------------------|
-------------------------------------------------------------------------|


----------------------------------------------------------------------|
----------------------------------------------------------------------|
--12-10-9----9-10-12-10-9---------------------------------------------|
----------12--------------12-10-9---12-10-9----9-10-12-10-9-----------|
--------------------------------------------12--------------12-10-8---|
----------------------------------------------------------------------|



-----------------------------------------------||
-----------------------------------------------||
-----------------------------------------------||
-----------------------------------------------||
--12--10--8------8--10--12--10--8--------------||
-------------12--------------------12--10--8---||


-------------8--10--12--13--12--10------------------||
--8--10--12-------------------------13--10--12--8---||
----------------------------------------------------||
----------------------------------------------------||
----------------------------------------------------||
----------------------------------------------------||


------------------------8-10-12-13-12-10------------------------------||
----------------8-10-12------------------13-12-10---------------------||
---------7-9-10-----------------------------------12-10-9-------------||
--7-9-10--------------------------------------------------12-10-9-7---||
----------------------------------------------------------------------||
----------------------------------------------------------------------||

_____________________________________________________________________________

		    G U I T A R      T R I C K    # 1
_____________________________________________________________________________


Three note-per-string scales:


-----------------------------------------------3--5--7---||
--------------------------------------3--5--6------------||
-----------------------------2--4--5---------------------||
--------------------2--3--5------------------------------||
-----------2--3--5---------------------------------------||
--1--3--5------------------------------------------------||


-----------------------------------------------------8--10--12---||
------------------------------------------8--10--12--------------||
--------------------------------7--9--10-------------------------||
----------------------7--9--10-----------------------------------||
------------7--8--10---------------------------------------------||
--7--8--10-------------------------------------------------------||


----------------------------------------------------10--12--13---||
----------------------------------------10--12--13---------------||
------------------------------7--9--10---------------------------||
--------------------7--9--10-------------------------------------||
-----------5--7--8-----------------------------------------------||
--5--7--8--------------------------------------------------------||


--17--15--13-------------------------------------------------------------||
--------------17--15--13-------------------------------------------------||
--------------------------14--12--10-------------------------------------||
--------------------------------------14--12--10-------------------------||
--------------------------------------------------12--10--8--------------||
-------------------------------------------------------------12--10--8---||


-------------------------------------------------------11--12--15---||
-------------------------------------------10--13--15---------------||
---------------------------------8--9--12---------------------------||
----------------------7--10--12-------------------------------------||
------------6--7--10------------------------------------------------||
--5--8--10----------------------------------------------------------||


______________________________________________________________________________

		    G U I T A R      T R I C K    # 2
______________________________________________________________________________


--12--10--8------------------------------------------------------||
-------------12--10--9-------------------------------------------||
------------------------10--9--7---------------------------------||
----------------------------------10--9--7-----------------------||
--------------------------------------------11--8--7-------------||
------------------------------------------------------10--8--7---||


------------------------------------------------------5--4--3---/|
---------------------------------------------7--6--5------------ |
------------------------------------8--7--6--------------------- |
--------------------------10--9--8------------------------------ |
--------------12--11--10---------------------------------------- |
--14--13--12----------------------------------------------------\|


---------------------------------------------------------------------------|
---------------------------------------------------------------------------|
---------------------------------------------------------------------------|
-------------------------------------------------8----------------8-9-10---|
-----------10----------------10-11-12---10-11-12---12-11-10-11-12----------|
--12-13-14----14-13-12-13-14-----------------------------------------------|

     ---------------------------------------------------------|
     -------------------------------------4-----------4-5-6---|
     ---------6-------------6-7-8---6-7-8---8-7-6-7-8---------|
     --8-9-10---10-9-8-9-10-----------------------------------|
     ---------------------------------------------------------|
     ---------------------------------------------------------|

     --------2-----------2-3-4---2-3-4---4-3-2-3-4---------||
     --4-5-6---6-5-4-5-6---------------0-----------0-1-2---||
     ------------------------------------------------------||
     ------------------------------------------------------||
     ------------------------------------------------------||
     ------------------------------------------------------||

_____________________________________________________________________________


Hammer-On's  &  Pull-Off's:


--5-------------------------||
-----8--6--5-----5--6--8----||
--------------7------------o||
---------------------------o||
----------------------------||
----------------------------||
  v  ^  P  P  ^  v  H  H

--5--7--8--7--5------||
-----------------8---||
--------------------o||
--------------------o||
---------------------||
---------------------||
  v  H  H  P  P  ^

--5--7--8--7--5-----5------------------------||
-----------------8-----8--6--5-----5--6--8---||
--------------------------------7-----------o||
--------------------------------------------o||
---------------------------------------------||
---------------------------------------------||
  v  H  H  P  P  ^  v  ^  P  P  ^  v  H  H

-----------13----------------15----------------17------------||
--13-15-17----17-15-13-15-17----17-15-13-15-17----17-15-13---||
-------------------------------------------------------------||
-------------------------------------------------------------||
-------------------------------------------------------------||
-------------------------------------------------------------||


----------------------------------------------------10-13-10-12-13---||
-------------------------------------------10-12-13------------------||
------------------------------9-12-9-10-12---------------------------||
----------------------9-10-12----------------------------------------||
----------8-2-8-10-12------------------------------------------------||
--8-10-12------------------------------------------------------------||


______________________________________________________________________________

                    G U I T A R      T R I C K    # 3
______________________________________________________________________________




Appregio Techniques:


--15--12-----------||
----------13-------||
--------------12--o||
------------------o||
-------------------||
-------------------||
   ^   v   v   v

--15--13--15--12-----------||
------------------13-------||
----------------------12--o||
--------------------------o||
---------------------------||
---------------------------||
   ^   v   ^   v   v   v

--15--13--15--12------------------------------12---||
------------------13----------------------13-------||
----------------------12--------------12----------o||
--------------------------14--12--14--------------o||
---------------------------------------------------||
---------------------------------------------------||
   v   ^   v   ^   v   v   ^   v   ^   ^   ^   ^

--15--12----------------------12----------15--12------12-----------||
----------16--12------12--16------16--12----------16------16--12---||
------------------14-----------------------------------------------||
-------------------------------------------------------------------||
-------------------------------------------------------------------||
-------------------------------------------------------------------||
   ^   P   ^   P   ^   v   H   v   ^   P   ^   P   ^   v   ^   P

------------7--10--12--10--7-------------||
-----------------------------------------||
--7--9--12--------------------12--9--7--o||
----------------------------------------o||
-----------------------------------------||
-----------------------------------------||
  v  H   H  v   ^   v   P  P   ^  P  P
[ Tab from: http://www.guitartabs.cc/tabs/p/paul_gilbert/intense_rock_tab.html ]
----------------7--10--12--10--7-------------||
---------------------------------------------||
------7--9--12--------------------12--9--7--o||
--------------------------------------------o||
--10-----------------------------------------||
---------------------------------------------||
   ^  v  H   H  v   ^   v   P  P   ^  P  P

----------------------------||
--12--15--19--15--12--------||
----------------------16---o||
---------------------------o||
----------------------------||
----------------------------||
   v   H   H   P   P   ^

------------------19---------------||
------12--15--19------19--15--12---||
----------------------------------o||
--16------------------------------o||
-----------------------------------||
-----------------------------------||
   ^   v   H   H   v   ^   P   P

--------------12--15--19--15--12-----------||
-------------------------------------------||
------------------------------------------o||
--14--17--21----------------------21--17--o||
-------------------------------------------||
-------------------------------------------||
   ^   v   ^   v   ^   v   P   P   ^   P

--------------------------12--15--19--15--12---------------------------||
-----------------------------------------------------------------------||
-----------------------------------------------------------------------||
--------------14--17--21----------------------21--17--14---------------||
-----------------------------------------------------------------------||
--12--15--19----------------------------------------------19--15--12---||
   ^   v   ^   v   H   H   v   ^   v   P   P   ^   P   P   ^   v   ^

_____________________________________________________________________________

		    G U I T A R      T R I C K    # 4
_____________________________________________________________________________

PAUL  GILBERT
=============

     INTENSE ROCK 2
______________________________________________________________________________


Example 1

Em
-----------------------------------------------||
-----------------------------------------------||
-------------9---------------------9----------o||
--9--10--12-----12--10--9--10--12-----12--10--o||
-----------------------------------------------||
-----------------------------------------------||
  1   2   4  1   4   2  1   2   4  1   4   2


______________________________________________________________________________


Example 2

Gm
--------------18--22--18--20--22--20--18--17--18--20--18--17--------------|
--18--20--22--------------------------------------------------20--18--16--|
--------------------------------------------------------------------------|
--------------------------------------------------------------------------|
--------------------------------------------------------------------------|
--------------------------------------------------------------------------|
   1   3   4   1   4   1   3   4   3   1   1   2   4   2   1   4   2   1

--------------15--18--15--17--18--17--15--13--15--17--15--13--------------|
--15--16--18--------------------------------------------------13--11--10--|
--------------------------------------------------------------------------|
--------------------------------------------------------------------------|
--------------------------------------------------------------------------|
--------------------------------------------------------------------------|
   1   2   4   1   4   1   3   4   3   1   1   3   4   3   1   4   3   1

--------------11--15--11--13--15--13--11--10--11--13--11--10--------------|
--11--13--15--------------------------------------------------13--11--10--|
--------------------------------------------------------------------------|
--------------------------------------------------------------------------|
--------------------------------------------------------------------------|
--------------------------------------------------------------------------|
   1   3   4   1   4   1   3   4   3   1   1   2   4   2   1   4   2   1

-------------8--11--8--10--11--10--8--6--8--10--8--6------------|
--8--10--11-------------------------------------------10--8--6--|
----------------------------------------------------------------|
----------------------------------------------------------------|
----------------------------------------------------------------|
----------------------------------------------------------------|
  1   3   4  1   4  1   3   4   3  1  1  3   4  3  1   4  3  1

------------5--8--5--6--8--6--5--3--5--6--5--3-----------|
--4--6--8---------------------------------------6--4--3--|
---------------------------------------------------------|
---------------------------------------------------------|
---------------------------------------------------------|
---------------------------------------------------------|
  1  3  4   1  4  1  2  4  2  1  1  3  4  3  1  4  2  1

-----------5--8--5--6--8--6--5--6--8--10--8--6------------|
--4--6--8---------------------------------------10--8--6--|
----------------------------------------------------------|
----------------------------------------------------------|
----------------------------------------------------------|
----------------------------------------------------------|
  1  3  4  1  4  1  2  4  2  1  1  3   4  3  1   4  3  1

-------------8--11--8--10--11--10--8--10--11--13--11--10--------------|
--8--10--11-----------------------------------------------13--11--10--|
----------------------------------------------------------------------|
----------------------------------------------------------------------|
----------------------------------------------------------------------|
----------------------------------------------------------------------|
  1   3   4  1   4  1   3   4   3  1   1   2   4   2   1   4   2   1

--------------11--15--11--13--15--13--11--13--15--17--15--13--------------|
--11--13--15--------------------------------------------------16--15--13--|
--------------------------------------------------------------------------|
--------------------------------------------------------------------------|
--------------------------------------------------------------------------|
--------------------------------------------------------------------------|
   1   3   4   1   4   1   3   4   3   1   1   3   4   3   1   4   3   1

--------------15--18--15--17--18--17--15--17--18--20--18--17--------------||
--15--16--18--------------------------------------------------20--18--16--||
-------------------------------------------------------------------------o||
-------------------------------------------------------------------------o||
--------------------------------------------------------------------------||
--------------------------------------------------------------------------||
   1   2   4   1   4   1   3   4   3   1   1   2   4   2   1   4   2   1


______________________________________________________________________________

Example 3

Am
------------------------------------------------------------5------||
--------------------------------------------5-----8=5---5=8---8=5--||
----------------------------5-----7=5---5=7---7=5-----7------------||
------------5-----7=5---5=7---7=5-----7----------------------------||
--7=5---5=7---7=5-----7--------------------------------------------||
------8------------------------------------------------------------||
  3 1 4 1 3 1 3 1 3 1 3 1 3 1 3 1 3 1 3 1 3 1 3 1 4 1 3 1 4 1 4 1


______________________________________________________________________________

Example 4

Am
-----------------------------------------------------------------------5--||
-----------------------------------------------------5--8==5-----5==8-----||
-----------------------------------5--7==5-----5==7-----------7-----------||
-----------------5--7==5-----5==7-----------7-----------------------------||
--7==5-----5==7-----------7-----------------------------------------------||
--------8-----------------------------------------------------------------||
  3  1  4  1  3  1  3  1  3  1  3  1  3  1  3  1  3  1  4  1  3  1  4  1


_______________________________________________________________________________

Example 5   "A" Blues

---------------------------------------------------------||
---------------------------------------------------------||
--------------------7---------8==7-----------------------||
--10==7------7==10-----10==7--------10==7------7---------||
---------10--------------------------------10-----10==7--||
---------------------------------------------------------||
   4  1   4  1   4  1   4  1  2  1   4  1   4  1   4  1


______________________________________________________________________________

Example 6

Dmaj
--10----------------10----------------10------------||
-----14-11----11-14----14-11----11-14----14-11------||
-----------12----------------12----------------12--o||
---------------------------------------------------o||
----------------------------------------------------||
----------------------------------------------------||
   1  4  1  2  1  4  1  4  1  2  1  4  1  4  1  2


______________________________________________________________________________





Example 7

Dmaj
------14==10------10--------------10------------------------------|
------------------------------------------------------------------|
--11----------14------14==11----------14==11--14==11------11------|
------------------------------12----------------------12----------|
--------------------------------------------------------------12--|
------------------------------------------------------------------|
   1   4   1   4   1   4   1   2   1   4   1   4   1   2   1   2


--------------10----------14==10------10---------12==10----------||
-----------------------------------------------------------------||
------11==14------14==11----------14------14==11--------14--12--o||
--12------------------------------------------------------------o||
-----------------------------------------------------------------||
-----------------------------------------------------------------||
   2   1   4   1   4   1   4   1   4   1   4   1  2   1   4   2


______________________________________________________________________________

Example 8

Dmaj                              Amaj
--14==10----------------------10----------------------------------|
----------------------------------------------10--14==10----------|
----------14==11------11==14--------------------------------------|
------------------12------------------11==14--------------14==11--|
----------------------------------12------------------------------|
------------------------------------------------------------------|
   4   1   4   1   2   1   4   1   2   1   4   1   4   1   4   1


Bm                          F#m
--10==7-------------------7-----------------------------|
---------------------------------------7--10==7---------|
---------11==7-----7==11--------------------------------|
----------------9---------------7==11------------11==7--|
-----------------------------9--------------------------|
--------------------------------------------------------|
   3  1   4  1  2  1   4  1  2  1   4  1   3  1   4  1


Gmaj                      Dmaj
--7==3-----------------3--------------------------|
-----------------------------------3--7==3--------|
--------7==4-----4==7-----------------------------|
--------------5--------------4==7-----------7==4--|
--------------------------5-----------------------|
--------------------------------------------------|
  4  1  4  1  2  1  4  1  2  1  4  1  4  1  4  1


Gmaj                      Amaj
--7==3-----------------3-----------5--9==5---------||
---------------------------------------------------||
--------7==4-----4==7--------6==9-----------9==6--o||
--------------5-----------7-----------------------o||
---------------------------------------------------||
---------------------------------------------------||
  4  1  4  1  2  1  4  1  2  1  4  1  4  1  4  1

______________________________________________________________________________


Example 9

Em
------------------------------------------------------------|
------------------------------------------------------------|
------------------------------------------------------------|
------------------------------------------------9--10--12//-|
-------------------7--9--10//12--10--9--10--12--------------|
--10--8--7--8--10-------------------------------------------|
   4  2  1  2   4  1  3   4===4   2  1   2   4  1   2   4==

-------------------------------------------------------------------|
------------------------------------------------------13--15--17//-|
----------------------11--12--14//16--14--12--14--16---------------|
//14--12--10--12--14-----------------------------------------------|
-------------------------------------------------------------------|
-------------------------------------------------------------------|
===4   2   1   2   4   1   2   4===4   2   1   2   4   1   2   4==

----------------------15--17--19//20--||
//19--17--15--17--19------------------||
--------------------------------------||
--------------------------------------||
--------------------------------------||
--------------------------------------||
===4   2   1   2   4   1   2   4===4


_______________________________________________________________________________


Example 10

Em
--17--19--20--19--17----------------------------------------------|
----------------------20--19--17--15--17--19--17--15--------------|
------------------------------------------------------17--16--14--|
------------------------------------------------------------------|
------------------------------------------------------------------|
------------------------------------------------------------------|
   1   3   4   3   1   4   3   1   1   3   4   3   1   4   3   1


------------------------------------------------------------------|
------------------------------------------------------------------|
--12--14--16--14--12----------------------------------------------|
----------------------16--14--12--10--12--14--12--10--------------|
------------------------------------------------------14--12--10--|
------------------------------------------------------------------|
   1   3   4   3   1   4   3   1   1   3   4   3   1   4   3   1


----------------------------------||
----------------------------------||
----------------------------------||
----------------------------------||
--9--10--12--10--9----------------||
--------------------12--10--8--7--||
  1   2   4   2  1   4   2  1  1
Comments