Paul Colman Trio - One Chords & Tabs

 

One Chords & Tabs

Paul Colman Trio Chords & Tabs

Version: 1 Type: Bass Tab 0 ratings
1 star 2 stars 3 stars 4 stars 5 stars
comments

One Bass Tab

 ok guys this is one of the best songs off PC3's turn album so i bought the 
book and thought y not put it on the net so here it is the bass tab for:
song:The One
Band:Paul Colman Trio
Album:Turn

Tuning: 1/2 step down

intro

F#|------------------------------|
C#|------------------------------|  
G#|--------5-6-7------5--6--7----| 2 times
D#|--5-6-7-------5-6-7-----------|

verse

F#|-----------------------------------------------------------|
C#|-----------------------------------------------------------|
G#|------------------------5-6-7-----------------------5-5-4--|
D#|--3-0-0-0-5-0-0-0-6-0-7-------3-0-0-0-5-0-0-0-6-0-7--------|

continued..
[ Tab from: http://www.guitartabs.cc/tabs/p/paul_colman_trio/one_btab.html ]
F#|------------------------------------------------------------|
C#|------------------------------------------------------------|
G#|------------------------5-6-7-------------------------5-6-7-|
D#|--3-0-0-0-5-0-0-0-6-0-7--------3-0-0-0-5-0-0-0-6-0-7--------|

continue.
F#|-------------------------------------------------------------|
C#|-------------------------------------------------------------|
G#|-----------------------5-5-4----------------------5-6-7------|
D#|-3-0-0-0-5-0-0-0-6-0-7-------3-0-0-0-5-0-0-0-6-0-7-----------|

continued..
F#|------------------------------|
C#|------------------------------|
G#|-----------------------5-5-4--|
D#|-3-0-0-0-5-0-0-0-6-0-7--------|


BRIDGE IS THE SAME AS THE VERSES FIRST BIT
CHORUS IS THE SAME AS THE INTRO
OUTRO1 IS A DIFFERENT RhYTHM its LIKE A RUNNING RhYTHM 
song order

intro  x2
verse  x1
chorus x3
verse  x1
chorus x6
bridge x5
chorus x6
outro1 x4
outro  x6
Comments