Paul Colman Trio - I Dream Chords & Tabs

 

I Dream Chords & Tabs

Paul Colman Trio Chords & Tabs

Version: 1 Type: Bass Tab 0 ratings
1 star 2 stars 3 stars 4 stars 5 stars
comments

I Dream Bass Tab

   
Official website: www.paulcolmantrio.com
Artist: Paul Colman Trio
Song:I dream
Album: New Map of The World

/ = slide up
\ = slide down
x =      note
+ = play same note with rythm
= = hold
Tuning: G D A Eb

 
Intro

|------|
|------|
|------|
|------|


Verse 1

|-------|
|-------|
|-------|
|-------|

Pre-Chorus 1

|---------------------------------------|
|--2=--4=--2=--4=--2=--4=--6=--8-9-11---|
|---------------------------------------|
|---------------------------------------|

Chorus 1

|-------------------------------------------------------------------|
|-----------------------------------------------------------2=------|
|-------------------------------------------------------------------|
|----8+---10+---5+---3+---0+---1+---5--5-5--3--3--3-3--3------------|

Verse 2 (same)

Pre-Chorus 2

|-----------------------------------------------|
|--2=--4=--2=--4=--2=--4=--6=--8--9--10/16-16\--|
|-----------------------------------------------|
|-----------------------------------------------|

Chorus 2

|-------------------------------------------------------------------|
|-------------------------------------------------------------------|
|-------------------------------------------------------------------|
|---8+---10+---5+---3+---0+---1+---5--5-5--3--3--3-3--3---1+----8=--|
[ Tab from: http://www.guitartabs.cc/tabs/p/paul_colman_trio/i_dream_btab.html ]
Bridge
(slow)
|-----13=---15/16=--15=--16=--13=--15/16=--18--15=---|
|----------------------------------------------------|
|-----11=---13/14=--13=--14=--11=--13/14=--16--13=---|
|----------------------------------------------------|

Chorus 3
(in beat)
|-x-x-x-x-|
|-x-x-x-x-|
|-x-x-x-x-|
|-x-x-x-x-|

Chorus 4

|----------------------------------------------|
|----------------------------------------------|
|----------------------------------------------|
|---8+---10+---5+---3+---0+---1+---5+---7-5-3+-|

Chorus 5
(don't accually hit 4 when sliding, just slide up to it, and slide back down)
|-------------------------------------------------------------------|
|--------------6-8-9-8-6-4+---1--1--1--1/4\2+-----------------------|
|-------------------------------------------------------------------|
|---8+---10+-----------------------------------------5=--3=--1=-----|

|-----------------------------------------------|
|-----------------------------------------------|
|-----------------------------------------------|
|----5=--3=/13-12-10-8-10-10\---5=--3=--5=--3=--|

Outro
(don't hit 10 between slides, just slide up to it then down)
|---------------------------------------------------|
|---------------------------------------------------|
|---------------------------------------------------|
|-1+/13++-15++-13++-15++-13++-15+\7+/10\1++-x-3~~~--|
Comments