Paul Baloche - Falling Chords & Tabs

 

Falling Chords & Tabs

Paul Baloche Chords & Tabs

Version: 1 Type: Bass Tab 0 ratings
1 star 2 stars 3 stars 4 stars 5 stars
comments

Falling Bass Tab

   
Falling
Paul Baloche and Brenton Brown

Verse1
             D2                   E5                   A2/F#
I would like to walk this world with You,   always
           D2             E5             A2/F#   D2  E5   A2/F#
Never want to be apart from You, O Lord
         D2                    E5                A2/F#              D2  E5   A2/F#
I am sometimes overwhelmed by truth and Your ways
              D2                 E5           D2/B                   D2
Could it be that I was made for You, I?m blown away


CHORUS
A2                 A2/F#
    I am falling,      I am falling in love
                       Esus           E                             A2
I am falling in love, I am falling in love with You
                  A2/F#                     D2/B
I am falling,      I am falling in love
                       Esus           E                            D2  E5   A2/F#   D2  E5  A2/F#
I am falling in love, I am falling in love with You
[ Tab from: http://www.guitartabs.cc/tabs/p/paul_baloche/falling_btab.html ]
Verse2
                    D2                   E5       A2/F#         D2  E5   A2/F#
Would You stay and listen for a while, please stay
                   D2                      E5           A2/F#       D2  E5   A2/F#
And let me talk of how You make me smile, oh?
             D2                    E5      A2/F#    D2  E5   A2/F#
I would like to leave it all behind, my ways
                D2                    E5           D2/B
But I get caught up in myself sometimes
                D2  A/D  D2  A/D
All I can say

Chords:


                D2
    _______________________
 5 |----0----|----|----|----|
   |----|----|----|----|----|
   |----|----0----0----|----|
   |----|----|----|----|----|


                E5
    ________________________
 7 |----0----|----|----|----|
   |----|----|----|----|----|
   |----|----0----0----|----|
   |----|----|----|----|----|


             A2/F#
    ________________________
   |----|----|----|----|----|
   0----|----0----0----|----|
   |----|----|----|----|----|
   |----|----|----|----|----|


              D2/B
    ________________________
 7 0----|----0----0----|----|
   |----|----|----|----|----|
   |----|----|----|----|----|
   |----|----|----|----|----|


                A2

    ________________________
   |----|----|----|----|----|
   |----|----0----0----|----|
   |----|----|----|----|----|
   |----|----|----|----|----|


               Esus
    ________________________
   |----|----|----|----|----|
   |----0----0----0----|----|
   |----|----|----|----|----|
   |----|----|----|----|----|

                 E

    ________________________
   |----|----|----0----|----|
   |----0----0----|----|----|
   |----|----|----|----|----|
   |----|----|----|----|----|

               A/D
    ________________________
 5 |----0----|----|----|----|
   |----|----|----0----|----|
   |----|----0----|----|----|
   |----|----|----|----|----|

Well, that?s it. I put these new chord diagrams in just for fun. If it doesn?t sound right, E-mail me at 
I also want your opinions on these new chord diagrams. Thanks!
Comments