Patti Rothberg - Flicker Chords & Tabs

 

Flicker Chords & Tabs

Patti Rothberg Chords & Tabs

Version: 1 Type: Bass Tab 0 ratings
1 star 2 stars 3 stars 4 stars 5 stars
comments

Flicker Bass Tab

From: " Oksenberg" 
To: 
Subject: TAB Flicker by Patti Rothberg
Date: Mon, 4 Aug 1997 03:12:27 -0400
X-MSMail-Priority: Normal
X-Mailer: Microsoft Internet Mail 4.70.1161

Flicker(for bass) By Patti Rothberg 
Tabbed by Linsai oksenberg@globalserve.net
http://www.geocities.com/SunsetStrip/Palms/9185
Main Riff


G-------------------------------------------------------- 
D----------------------------------------------------------- 
A----5--5--5--5--7--7--7--7------------------------------ 
E-------------------------------------7--7--7--7--7--7--7--7 


MIDDLE PART 


G-------------------------------------------- 
D-------------------------------------------- 
A------------------------------------------------- 
E----7--7--5-----5--3--3---3--3--3--3--0 


Back to main riff 


notes before chorus 

[ Tab from: http://www.guitartabs.cc/tabs/p/patti_rothberg/flicker_btab.html ]
G----------- 
D------------ 
A------------- 
E----7--7--5 


Chorus 


E-----5\7--7-7-7-7-7-7-7-7--3-3-3-3-3-3-3-3 


E-----5-5-5-5-5-5-5-5-0-0-0-0-0-0-0-0 x2 


The bass like is using the first note of each chord but in the last part of
the song you can play something like this: 


G--------------------------------------------------------------------------

D----------------------------------------7-----9---------------------------

A----5----------------5---7----9------------------------------------------ 
E----------5----7------------------------------------7-7-7-7-7-7-7-7 


This bass line can also be used: 


G--------------------------------------------------------------- 
D----------------------------------------------------------7--9 
A----5--5--5--5--7--7--7-------------------7--9--------- 
E--------------------------------7--7--7--7-------------------

Comments