Patricio Rey - Alien Dulce Chords & Tabs

 

Alien Dulce Chords & Tabs

Patricio Rey Chords & Tabs

Version: 1 Type: Bass Tab 0 ratings
1 star 2 stars 3 stars 4 stars 5 stars
comments

Alien Dulce Bass Tab

   
Intro
G|-------------|x8
D|-------------|
A|-3h5-555555--|
E|-------------|

Verso **2 VECES**
G|------------|------------|
D|------------|------------|
A|-3h5-555555-|------------|
E|------------|-1h3-333333-|

 |------------|------------|
 |------------|------------|
 |-3h5-555555-|-3h5-555555-|
 |------------|------------|

Puente
G|-------|x2
D|-------|
A|-3-3-3-|
E|-------|

Verso **2 VECES**
G|------------|------------|
D|------------|------------|
A|-3h5-555555-|------------|
E|------------|-1h3-333333-|

 |------------|------------|
 |------------|------------|
 |-3h5-555555-|-3h5-555555-|
 |------------|------------|

Puente
G|-------|x2
D|-------|
A|-3-3-3-|
E|-------|
[ Tab from: http://www.guitartabs.cc/tabs/p/patricio_rey/alien_dulce_btab.html ]
Coro
G|-----------------|x4
D|-----------------|
A|-----------1111--|
E|-0000--33--------|

 |----------------|
 |----------------|
 |----------------|
 |-0(x15)-1(x15)--|

Pre-Verso
G|------------|x4
D|------------|
A|-3h5-555555-|
E|------------|

Verso **2 VECES**
G|------------|------------|
D|------------|------------|
A|-3h5-555555-|------------|
E|------------|-1h3-333333-|

 |------------|------------|
 |------------|------------|
 |-3h5-555555-|-3h5-555555-|
 |------------|------------|

Puente
G|-------|x2
D|-------|
A|-3-3-3-|
E|-------|

Coro
G|-----------------|x4
D|-----------------|
A|-----------1111--|
E|-0000--33--------|

 |---------|
 |---------|
 |---------|
 |-0(x15)--|

Final
G|-----------------|x8 |-----|
D|-----------------|   |-----|
A|-----------1111--|   |-----|
E|-0000--33--------|   |-(0)-|

Escuch? la canci?n para saber el ritmo
Comments