Patrice - Soulstorm Chords & Tabs

 

Soulstorm Chords & Tabs

Patrice Chords & Tabs

Version: 1 Type: Tab 0 ratings
1 star 2 stars 3 stars 4 stars 5 stars
comments

Soulstorm Tab

   
e|--5--5--3--5--|
b|--5--6--3--5--|
g|--5--7--4--5--|
D|--7--7--5--7--|
A|--7--5--5--7--|
E|--5--5--3--5--|

    Am Dm G Am


[ Tab from: http://www.guitartabs.cc/tabs/p/patrice/soulstorm_tab.html ]
e|--0-5-0-5-8-7-5---7-5--|
b|----------------8------|
g|-----------------------|
D|-----------------------|
A|-----------------------|
E|-----------------------|


Tabbed by:  phlammert
Comments