Pathak Nimit - Bitter Sweet Dance Chords & Tabs

 

Bitter Sweet Dance Chords & Tabs

Pathak Nimit Chords & Tabs

Version: 1 Type: Tab 0 ratings
1 star 2 stars 3 stars 4 stars 5 stars
comments

Bitter Sweet Dance Tab

~Bitter Sweet Dance~
:Early Rendition:
By: Nimit Pathak
 
               intro
E--------2---------2---------2----------2--------2---------2-------
B-----3----3----3----3----3----3----3----3-----3---3----3----3-----
G---2--------2----------2---------2---------0--------0---------2---
D-------------------------------------------------------------------
A-------------------------------------------------------------------
E--------------------------------------------------------------------
[ Tab from: http://www.guitartabs.cc/tabs/p/pathak_nimit/bitter_sweet_dance_tab.html ]
~chorus~
       Repeat 8-9x
E---2--2---2---2--2--2--2--2-------------------------------
B---3------3---3------3-----3-------------------------------
G---2------2---0------2-----0-------------------------------
D---------------------------------3---------------------------
A-------------------------------------------------------------
E-------------------------------------------------------------

E--------2---------2---------2-------2--------2---------2-----------
B-----3----3----3----3---3----3----3----3---3---3----3----3---------
G---2---------2--------2---------2--------0--------0---------2------
D-------------------------------------------------------------------
A-------------------------------------------------------------------
E--------------------------------------------------------------------

E---2--2---2---2--2---2--2--2------2--2-------2----2----------
B---3------3---3------3-----3------3----3---3------3----------
G---2------2---0------2-----0------2------0--------0----------
D-------------------------------3-----------------------------
A-------------------------------------------------------------
E-------------------------------------------------------------
Comments