Patent Pending - Lights Out In Mississipi Chords & Tabs

 

Lights Out In Mississipi Chords & Tabs

Patent Pending Chords & Tabs

Version: 1 Type: Tab 0 ratings
1 star 2 stars 3 stars 4 stars 5 stars
comments

Lights Out In Mississipi Tab

INTRO:

e-----------------------------------------------------------------------|
B-----------------------------------------------------------------------|
G-----------------------------------------------------------------------|
D--------7-----------7-----------7-----------7---------7----------7-----|
A------7---7-------7---7-------7---7-------7---7-----7---7------7---7---|
E--5-5-------5-5-5-------5-5-5-------5-5-5-------5-5--------5-5-------5-|

e------------------------------------------------------------------------|
B------------------------------------------------------------------------|
G--------7-----------7---------------------------------9----------7------|
D------7---7-------7---7---------7-----------7-------9---9------7---7----|
A--5-5-------5-5-5-------5-----7---7-------7---7---7-------7--5-------5--|
E--------------------------5-5-------5-5-5-------5-----------------------|
[ Tab from: http://www.guitartabs.cc/tabs/p/patent_pending/lights_out_in_mississipi_tab.html ]
e--------------------------------------------------------------------------|
B--------------------------------------------------------------------------|
G--------------------------------7-----------7---------9----------7--------|
D--------7-----------7---------7---7-------7---7-----9---9------7---7------|
A------7---7-------7---7---5-5-------5-5-5-------5-7-------7--5-------5----|
E--5-5-------5-5-5-------5-------------------------------------------------|

e------------------------------------------------------------------------|
B------------------------------------------------------------------------|
G--------------------------------7-----------7---------9----------7------|
D--------7-----------7---------7---7-------7---7-----9---9------7---7----|
A------7---7-------7---7---5-5-------5-5-5-------5-7-------7--5-------5--|
E--5-5-------5-5-5-------5-----------------------------------------------|

end on A(chord, dont pluck)


the rest of the song is E D A

..... i'm not 100% sure on the order of it throught the song but i'm pretty sure thats 
the rest of the song is right....it's my 1st tab i hope i did good, i couldnt find 
tab for it so i did it best i could.
i know it's not a difficult song but its a cute one and works good if u wanna play it 
a girl or somthing

if you have any corrections feel free to submit them or tell me @ kkool90@aol.com
Comments