Patent Pending - Anti-everything Chords & Tabs

 

Anti-everything Chords & Tabs

Patent Pending Chords & Tabs

Version: 1 Type: Tab 0 ratings
1 star 2 stars 3 stars 4 stars 5 stars
comments

Anti-everything Tab

   
-------------------------------------------------------------------------
                         Anti-Everything - Patent Pending
-------------------------------------------------------------------------
Tabbed by: LastResort42
E-mail: brockbrookes@gmail.com


Great song by a great band who sadly haven't yet received the mainstream 
popularity they deserve, couldn't
find a tab so did one myself :)

Tuning:DADGBe

Intro:

What did she do when she was all alone,
took a baseball bat to her telephone,
small town girl vs the whole wide world,
she's anti everything today

e|----------------------|
B|----------------------|
G|----------------------|
D|--4-4---3-3-----------|
A|--4-4---3-3-----------|
D|--4-4---3-3-----------|

e|--------------------------------------|
B|--------------------------------------|
G|-3-3-33-------------------------------|
D|-3-3-33---0-0-00---1-1-11---44-33-----|
A|-1-1-11---0-0-00---1-1-11---44-33-----|
D|----------0-0-00---1-1-11---44-33-----|

Verse:

e|------------------------------------------------------------------|
B|-----3-----------------------4---------3--------------------------|
G|-------3-----------------------3---------3------------------------|
D|-------------3-------5-------------------------3-----5555---1111--|
A|-1-1-----------3-------5-------------1----------3----5555---1111--|
D|-----------3-------5-------1-----------------3-------5555---1111--|

e|------------------------------|
B|------------------------------|
G|------------------------------|
D|-111---33333---0000---55-33---|     x2
A|-111---33333---0000---55-33---|
D|-111---33333---0000---55-33---|

Synth part (chords for guitar)

e|---------------------------------------|
B|---------------------------------------|
G|---------------------------------------|
D|-1---3---8---7---5---3---1---44---33---|
A|-1---3---8---8---5---3---1---44---33---|
D|-1---3---8---7---5---3---1---44---33---|

Pre-Chorus:

"So Katy be honest..."
[ Tab from: http://www.guitartabs.cc/tabs/p/patent_pending/anti_everything_tab.html ]
e|-----------------------------------------------|
B|-----------------------------------------------|
G|-33------------------33------------------------|
D|-33---33---55---11---33---00---11---44---33----|
A|-11---33---55---11---11---00---11---44---33----|
D|------33---55---11--------00---11---44---33----|

Chorus:

e|--------------------------------------------------------------------|
B|--------------------------------------------------------------------|
G|-3333------------------------3333-----------------------------------|
D|-3333---3333---5555---1111---3333---3333---11111111---3333-44-33----|
A|-1111---3333---5555---1111---1111---3333---11111111---3333-44-33----|
D|--------3333---5555---1111----------3333---11111111---3333-44-33----|

Bridge:

e|--------------------------------|
B|--------------------------------|
G|----33------------33------------|
D|-11-33-33-5533-11-33-33-5533----|
A|-11-11-33-5533-11-11-33-5533----|
D|-11----33-5533-11----33-5533----|

Final Chorus:

e|--------------------------------------------|
B|--------------------------------------------|
G|------3333----------------3333--------------|
D|-1111-3333-3333-5533-1111-3333-3333-5533----| x2
A|-1111-1111-3333-5533-1111-1111-3333-5533----|
D|-1111------3333-5533-1111------3333-5533----|
                                      ^^
                                      ||
       Second time round replace the 5s with 4s


Haven't worked out the solo but just improvise over the chord progressions 


Song order:

Intro x2
Verse
Synth part
Pre-Chorus
Chorus
Intro x1
Verse (obvious where no guitar plays when you listen to the track)
Synth part
Pre-Chorus
Chorus (play chords lasting slightly longer)
Solo (improvise - not a very recognisable solo so didn't tab)
Synth part
Bridge
Final Chorus (don't forget the F sharp power chords second time through)
       
************************************

| /   slide up
| \   slide down
| h   hammer-on
| p   pull-off
| ~   vibrato
| +   harmonic
| x   Mute note
| b   Bend
| pb  Pre-bend
| br  Bend release
| pbr Pre-bend release
| brb Bend release bend

************************************
Comments