Pat Mcgee Band - Havent Seen For Awhile Chords & Tabs

 

Havent Seen For Awhile Chords & Tabs

Pat Mcgee Band Chords & Tabs

Version: 1 Type: Tab 0 ratings
1 star 2 stars 3 stars 4 stars 5 stars
comments

Havent Seen For Awhile Tab

Pat McGee Band
“Haven’t Seen for Awhile”
Tabbed by:  Justin Bachtell

Intro/Verse

E-------------------------------
B------------------------2--0---
G----------------1----4--2--2---
D---2—2----------2----4--2--2---
A---------2------2----2--0--0---
E-------------0--0----x---------

Chorus
[ Tab from: http://www.guitartabs.cc/tabs/p/pat_mcgee_band/havent_seen_for_awhile_tab.html ]
“I’m there by your side…”
E--------------|    |-------------------
B-------2---0--|    |----------2----0---
G---4---2---2--| x2 |--1----4--2----2--- x2
D---4---2---2--|    |--2----4--2----2---
A---2---0---0--|    |--2----2--0----0---
E---x----------|    |--0----x-----------

That’s pretty much it, pretty simple
Comments