Pastis 51 - Pastis Chords & Tabs

 

Pastis Chords & Tabs

Pastis 51 Chords & Tabs

Version: 1 Type: Tab 0 ratings
1 star 2 stars 3 stars 4 stars 5 stars
comments

Pastis Tab

51 Je T'Aime                                   


Voila la chanson du Pastis : 51 Je t’aime, je l’ai tablée vite fait pour que tout le monde puisse en profiter car je la joue avec mon groupe (SubSkware) ça fout le feu !!!
Here is the famous french drinking song about the Pastis, I tabbed it quickly so that everyone could play it as well. It’s a punk reprise. Play it loud and with distortion!!!
                                                                                
E||-------------------------|------------------------|-------------------------|
B||-------------------------|------------------------|-------------------------|
G||-----7--7--------7--7----|-----7--7-----7--6------|-----6--6--------6--6----|
D||--7--------7--7----------|--7--------7------------|--7--------7--7----------|
A||-------------------------|------------------------|-------------------------|
E||-------------------------|------------------------|-------------------------|
[ Tab from: http://www.guitartabs.cc/tabs/p/pastis_51/pastis_tab.html ]
                                                         
-----------------------------|--------------------------|
----------------------7------|--------------------------|
--------------6--7-----------|--7--7--7--7--7-----------|
--7--7--7--9-----------------|--7--7--7--7--7--4--4-----|
-----------------------------|--5--5--5--5--5--------5--|
-----------------------------|--------------------------|

                                                                               
--------------------------|--------------------------|------------------------|
--------------------------|--------------------------|-------------------7----|
--------------------------|--6--6--6--6--6-----------|--7--7--7--7--7---------|
--2--2--2--2--2--2--2--2--|--6--6--6--6--6-----------|--7--7--7--7--7---------|
--2--2--2--2--2-----------|--4--4--4--4--4--7--7--4--|--5--5--5--5--5---------|
--0--0--0--0--0-----------|--------------------------|------------------------|

                                                      
--------------------------|--------------------------|
--------------------------|--------------------------|
--7--7--7--7--7-----------|--------------------------|
--7--7--7--7--7--4--4-----|--2--2--2--2--2--2--2--2--|
--5--5--5--5--5--------5--|--2--2--2--2--2-----------|
--------------------------|--0--0--0--0--0-----------|

                                                  
--------------------------|---------------------||
--------------------------|---------------------||
--6--6--6--6--6-----------|--7------------------||
--6--6--6--6--6-----------|--7------------------||
--4--4--4--4--4--7--7--4--|--5------------------||
--------------------------|---------------------||

Any comments, yannenater1@aol.com
Comments