Passenger - For You Chords & Tabs

 

For You Chords & Tabs

Passenger Chords & Tabs

Version: 1 Type: Bass Tab 0 ratings
1 star 2 stars 3 stars 4 stars 5 stars
comments

For You Bass Tab

   
For You by Passenger, bassist - Håkan Skoger

Drop A# (Skoger uses a 4strings)

d# a# F a#

Intro/Verse
 -------------------------------------------------------|
 0--12\\\----0--3--5--7--10-10\-------------------------|
 ------------------------------------------------8-10-8-|
 --------------------------------8~8-8--8--8~888--------|

Pre-Chorus
 ----
 ----   REST
 10~~   REST
 ----

Chorus
 ----------------------------------------------|
 ----------------------------------------------|
 ----------------------------------------------|
 2-2--2-2-2/12-12-12-121212-9-9--99-5~-5555555-|
[ Tab from: http://www.guitartabs.cc/tabs/p/passenger/for_you_btab.html ]
Bridge
 -----------------------|
 -----------------------|
 -----------------------|
 0~~----------------0~~-|
_
 -----------------------------------------|
 -----------------------------------------|
 -----10~--12/14~--12~--------10~--12/14~-|
 12~---------------------12~--------------|
_
 ---------------------|
 ------12121212121212-|
 12h14----------------|
 ---------------------|

End
 ---
 ---
 ---
 5~~

In Order:

Intro x2
Verse x2
Pre-Chorus
Chorus x2
Intro x2
Verse x2
Pre-Chorus
Chorus x2
Bridge
Chorus x4 + End


I turn my back on you
And as I try to, I hurt for you
I keep degrading you
And it's a feeling of healing

You are on your knees, I feel so pleased

How should I reply?
When all you say is why

I open up for you
And as I try to, I picture you
I keep degrading me
And it's a feeling of healing
Comments