Partisans - Overdose Chords & Tabs

 

Overdose Chords & Tabs

Partisans Chords & Tabs

Version: 1 Type: Bass Tab 0 ratings
1 star 2 stars 3 stars 4 stars 5 stars
comments

Overdose Bass Tab

   
----------------------------------------------------------------------------
			     Overdose - The Partisans
----------------------------------------------------------------------------
Tabbed by:  Shane Moore aka Unseen_hero
Email:  agentorange1@gmail.com (spam = death)

Tuning: standard

I had this one sitting in my pm box since i did it as a favor for someone.  So, here
you go, it's perfect.  There's pauses/breaks in some of the notes you have to listen
for to get the rhythm right.
[ Tab from: http://www.guitartabs.cc/tabs/p/partisans/overdose_btab.html ]
verse
G|-----------------------------------------------------------------|
D|-----------------------------------------------------------------|
A|--7-7-7/10-10-10-10-7-7-5-5-----7-7-7/10-10-10-10-7-7------------|
E|----------------------------5-7-----------------------8-8-8-8----|

chorus
G|------------------------------|
D|------------------------------|
A|--7-7-5-5-5-5-----7-7-5-7-----|
E|--------------5-5-------------|

end section of chorus
G|--------------------|
D|--------------------|
A|--7-7-5-5-5-5-7-----|
E|----------------5---|

bridge
G|------------------------------|
D|------------------------------|
A|--7-7---------5-5-7-7-5-7-----|
E|------3-3-3-3-----------------|

| /  slide up
| \  slide down
| h  hammer-on
| p  pull-off
| ~  vibrato
| +  harmonic
| x  Mute note
============================================================================
Comments