Partibrejkers - Hipnotisana Gomila Chords & Tabs

 

Hipnotisana Gomila Chords & Tabs

Partibrejkers Chords & Tabs

Version: 1 Type: Tab

Hipnotisana Gomila Tab

partibrejkersi
hipnotisana gomila
tabed by scepa


|---------------------------------------------|
|---------------------------------------------|
|-----------------------------x-x-x-x-x-x-x-x-|
|-4-4-0-----0-4-4-4-0-----0-4-x-x-x-x-x-x-x-x-|
|-2-2-0-4-4-0-2-2-2-0-4-4-0-2-x-x-x-x-x-x-x-x-|
|-------2-2-----------2-2---------------------|
			      mi ne idemo nikud 
			      i ne radimo nista


|---------------------------------------------|
|---------------------------------------------|
|-----------------------------x-x-x-x-x-x-x-x-|
|-4-4-0-----0-4-4-4-0-----0-4-x-x-x-x-x-x-x-x-|
|-2-2-0-4-4-0-2-2-2-0-4-4-0-2-x-x-x-x-x-x-x-x-|
|-------2-2-----------2-2---------------------|
			      mi smo jedna velika
			      hipnotisana gomila...

[ Tab from: http://www.guitartabs.cc/tabs/p/partibrejkers/hipnotisana_gomila_tab.html ]
|-----------------------------------------------------------------------------|
|-----------------------------------------------------------------------------|
|-----------------------------------------------------------------------------|
|-9-9-9-9-9-9-9-9-9-9-9-9-9-9-7-7-7-7-7-7-7-7-7-7-7-7-7-7-4-4-4-4-4-4-4-4-4-4-|
|-7-7-7-7-7-7-7-7-7-7-7-7-7-7-5-5-5-5-5-5-5-5-5-5-5-5-5-5-2-2-2-2-2-2-2-2-2-2-|
|-----------------------------------------------------------------------------|


chorus
|-----------------------------|
|-----------------------------|
|-----------------------------|
|-4-4-0-----0-4-4-4-0-----0-4-|
|-2-2-0-4-4-0-2-2-2-0-4-4-0-2-|
|-------2-2-----------2-2-----|
da li verujes meni...


solo 4x
|------------------|
|-7~-7~-7~---------|
|-9~-9~-9~-9-7-9-7-|
|------------------|
|------------------|
|------------------|


ending
|-------------------|
|-------------------|
|-------------------|
|-9-9-7-9-9-7-9-x-9-|
|-7-7-5-7-7-5-7-x-7-|
|-------------------|

:)