Parquet Courts - Stoned And Starving Chords & Tabs

 

Stoned And Starving Chords & Tabs

Parquet Courts Chords & Tabs

Version: 2 Type: Tab 0 ratings
1 star 2 stars 3 stars 4 stars 5 stars
comments

Stoned And Starving Tab

   
Parquet Courts - Stoned and Starving
Tuning: C A D G B e

The band plays the song in C G D G B e, an old Pavement tuning, but you 
can still play the song fine without tuning down the A string. If you 
want to play it without the A tuned down, it should be relatively easy 
to figure out.

Main riff:

   C                                F
e|-------------------------------|------------------------------------|
B|-------------------------------|--10---10---10-10-10-10-------------|
G|-------------------------------|--10---10---10-10-10-10-------------|
D|---------------8---8---8-8-----|--10---10---10-10-10-10-------------|
G|---10-10p9-/5--5---5---5-5-----|--10---10---10-10-10-10-------------|
C|-0---------------0---0---------|------------------------------------|

   x4                              x1

After solos, play the riff twice instead of four times before the F 
chord.  The rhythm guitarist plays the notated chords and continues 
the pattern during solos.

First solo:

e|--------------------------------------------------------------------|
B|--13----13--13--11--11/13--13----15--15/17---/20--20--17--20--17----|
G|--------------------------------------------------------------------|
D|--------------------------------------------------------------------|
G|--------------------------------------------------------------------|
C|--------------------------------------------------------------------|

e|--------------------------------------------------------------------|
B|--17--15--13----11---/8----8--/11---15----17---17--15--17-----------|
G|--------------------------------------------------------------------|
D|--------------------------------------------------------------------|
G|--------------------------------------------------------------------|
C|--------------------------------------------------------------------|

e|--------------------------------------------------------------------|
B|--15---15---15---15/17--17--17------15---15---15---15/17--17--17-15-|
G|--15---15---15---15/17--17--17------15---15---15---15/17--17--17-15-|
D|--------------------------------------------------------------------|
G|--------------------------------------------------------------------|
C|--------------------------------------------------------------------|

e|--------------------------------------------------------------------|
B|-15---15---15---15---15/17--17--15---15---15---15---15/17--17-17-15-|
G|-15---15---15---15---15/17--17--15---15---15---15---15/17--17-17-15-|
D|--------------------------------------------------------------------|
G|--------------------------------------------------------------------|
C|--------------------------------------------------------------------|

e|----------------------------------------------------------15--------|
B|--17--17--17-15---15/13-11/13-----13/15-15-15---15--11-13----11-13--|
G|--17--17--17-15-----------------------------------------------------|
D|--------------------------------------------------------------------|
G|--------------------------------------------------------------------|
C|--------------------------------------------------------------------|
[ Tab from: http://www.guitartabs.cc/tabs/p/parquet_courts/stoned_and_starving_tab_ver_2.html ]
e|--------------------------------------------------------------------|
B|--15-------------15----17-------------------------------------------|
G|------10-/15--------------------------------------------------------|
D|--------------------------------------------------------------------|
G|--------------------------------------------------------------------|
C|--------------------------------------------------------------------|


Second solo:

e|--------------------------------------------------------------------|
B|---13-----13---11---11--11/8-8--8/11-/8---8/6---6/8--8--8/11--------|
G|--------------------------------------------------------------------|
D|--------------------------------------------------------------------|
G|--------------------------------------------------------------------|
C|--------------------------------------------------------------------|

e|--------------------------------------------------------------------|
B|-/15-15-15-15---15--17-17--20-17-20-17-20--17-17-17/20-20-17-15-13--|
G|-------------15-----------------------------------------------------|
D|--------------------------------------------------------------------|
G|--------------------------------------------------------------------|
C|--------------------------------------------------------------------|

e|--------------------------------------------------------------------|
B|--------15/17/15-/12---12/10----------------------------------------|
G|-10/15------------------------12--10--9---9/12-12-12-12/15-15-15----|
D|--------------------------------------------------------------------|
G|--------------------------------------------------------------------|
C|--------------------------------------------------------------------|

e|--------------------------------------------------------------------|
B|--------------------------------------------------------------------|
G|-15/17-17-17--17/15-15-15--12--10--/12-12/15--/17--15--12---10--12--|
D|--------------------------------------------------------------------|
G|--------------------------------------------------------------------|
C|--------------------------------------------------------------------|

e|--------------------------------------------------------------------|
B|--------------------------15--15--15--15----------------------------|
G|-12/15--15--17--15-15-17-----------------15/-10-10/7-7-7-7-7/10-10/9|
D|--------------------------------------------------------------------|
G|--------------------------------------------------------------------|
C|--------------------------------------------------------------------|

e|--------------------------------------------------------------------|
B|-8------------------------------------------------------------------|
G|---7--7/9--9----9--7--7/9--9------9--7--7/9--9---------9------------|
D|--------------------------------------------------------------------|
G|--------------------------------------------------------------------|
C|--------------------------------------------------------------------|

e|--------------------------------------------------------------------|
B|------------------8---------------------------8------8---8----------|
G|--7-7-7--7/9--9-----7--7/9--9---7--7/9--9-----9---/9---9------------|
D|--------------------------------------------------------------------|
G|--------------------------------------------------------------------|
C|--------------------------------------------------------------------|
Comments