Parokya Ni Edgar - Yes Yes Show Chords & Tabs

 

Yes Yes Show Chords & Tabs

Parokya Ni Edgar Chords & Tabs

Version: 1 Type: Tab 0 ratings
1 star 2 stars 3 stars 4 stars 5 stars
comments

Yes Yes Show Tab

Song: The Yes Yes Show
Artist/Band: Parokya Ni Edgar
Album: Bigotilyo
Submitted By: bogey

Intro:
[ Tab from: http://www.guitartabs.cc/tabs/p/parokya_ni_edgar/yes_yes_show_tab.html ]
E|------------------------------|
B|------------------------------|
G|----12----------5-------------|
D|----12----------5-------------|
A|----x-----------x-------------| 2x
E|----12----------5-------------|
 
Chorus:
 
E|-------------------------------------------------------------|
B|-------------------------------------------------------------|
G|----12-----------------------------------------5-------------|
D|----12-----------------------------------------5-------------|
A|----x------------------------------------------x-------------| 
E|----12-----------------------------------------5-------------|
  You better get ready for a big surprise, you think it's almost over...

Verse:

E|-------------------------------------------------------------|
B|-------------------------------------------------------------|
G|----12-----------------------------------5-------------------|
D|----12-----------------------------------5-------------------|
A|----x------------------------------------x-------------------| 
E|----12-----------------------------------5-------------------|
   More Margarita for my cute senyorita, triple the tequila...

And so on and so on...paulit-ulit lang yung mga chord na yan!

Sa totoo lang, hindi ako ang kumapa ng tab na 'to. Tinuro sa 'kin 'to ni Roy Fajardo. Tnx, Roy!
Comments