Parokya Ni Edgar - Ted Hannah Chords & Tabs

 

Ted Hannah Chords & Tabs

Parokya Ni Edgar Chords & Tabs

Version: 9 Type: Tab 0 ratings
1 star 2 stars 3 stars 4 stars 5 stars
comments

Ted Hannah Tab

   
TED HANNAH
 ok....by the way im jm cruz from los banos.....di ko sure kung tama nga ito pero tingin 
tama naman ito ng mga 90%...hehehehe......cge enjoy nio lng po!this is for my love one,
liezel....hehehe......

LEGENDS:
"s" - slide to
"h" - hammer-on
Standard Tuning

INTRO:

e-----------------------------------|
B-----------10-9--------------------|
G--------9--------9------9--8-------|
D--9h11--------------11--------9----|
A---------------------------------7-|
E-----------------------------------|

e----------------------------------10s12-|
B-----------10-9----------------9--------|
G--------9--------9------9-9s11----------|
D--9h11--------------11------------------|
A----------------------------------------|
E----------------------------------------|

e-----------------------------------|
B-----------10-9--------------------|
G--------9--------9------9--8-------|
D--9h11--------------11--------9----|
A---------------------------------7-|
E-----------------------------------|

let ring
e------------------------12---------|
B-----------10-9---------12---------|
G--------9--------9------12---------|
D--9h11--------------11-------------|
A-----------------------------------|
E-----------------------------------|

STANZA 1:

E B A C#m B
E B A C#m B
C#m B A B
C#m B A B

CHORUS 1:

E B A B
E B A B
BARCHORDS
E B A B
E B A B
.....mangyari ng tadhana.. para sa'tin!


e-----------------------------------|
B-----------10-9--------------------|
G--------9--------9------9--8-------|
D--9h11--------------11--------9----|
A---------------------------------7-|
E-----------------------------------|

let ring
e------------------------12---------|
B-----------10-9---------12---------|
G--------9--------9------12---------|
D--9h11--------------11-------------|
A-----------------------------------|
E-----------------------------------|

STANZA 2: (do stanza 1 chords!)


CHORUS 2: (do chorus 1 chords!)
tan tan tan tan...
[ Tab from: http://www.guitartabs.cc/tabs/p/parokya_ni_edgar/ted_hannah_tab_ver_9.html ]
SOLO
e------------------------------------|
B-12--10-9--------------9-10-9-------|
G----------9-9S11--9-11--------9-----|
D------------------------------------|
A------------------------------------|
E------------------------------------|

e------------------------------------|
B------9-10-9------------------------|
G-9-11--------11---9------9----------|
D--------------------11-9------------|
A------------------------------------|
E------------------------------------|

e------------------------14-12----------------|
B----------------9h10-11-------12-10-9-10-9---|
G-----------9h11----------------------------9-|
D------9h11-----------------------------------|
A-9h11----------------------------------------|
E---------------------------------------------|

e-------------------------------------|
B-------------------------------------|
G-9--8--9-8-----------------------8---|
D-11-9------9-9s11--6--7-s-9--11--9---|
A-------------------7--9-s-11-12------|
E-------------------------------------|

e-------12-9----------------------------|
B-10h12------12-9-9s10------------------|
G-------------------------------------8-|
D-----------------------6--7-s-9--11--9-|
A-----------------------7--9-s-11-12----|
E---------------------------------------|

e----------------------------------12-11---|
B----------------------------10h12---------|
G-6-8-6-4-----------------8----------------|
D-7-9-7-6---6--7-s-9--11--9----------------|
A-----------7--9-s-11-12-------------------|
E------------------------------------------|

e----11-12-14---11-12-14---11-12--16-14-12-|
B-12---------------------------------------|
G------------------------------------------|
D------------------------------------------|
A------------------------------------------|
E------------------------------------------|

e-14-11-12-9-11-7--9-11-12-14--11-12-14--12~-|
B--------------------------------------------|
G--------------------------------------------|
D--------------------------------------------|
A--------------------------------------------|
E--------------------------------------------|

e-11-12-11-----------------------------|
B----------12--12-12s10--9-9s10--------|
G-------------------------------9-9s11-|
D--------------------------------------|
A--------------------------------------|
E--------------------------------------|

e-----------------------------------------------|
B-----------9-10-12--12-12s10--9-9s10-----------|
G----8-9-11---------------------------9-9s11--9-|
D-11--------------------------------------------|
A-----------------------------------------------|
E-----------------------------------------------|
tnx a lot.....any reaction pls e-mail me @ jancruz25@yahoo.com
Comments