Parokya Ni Edgar - Ted Hannah Chords & Tabs

 

Ted Hannah Chords & Tabs

Parokya Ni Edgar Chords & Tabs

Version: 8 Type: Tab 0 ratings
1 star 2 stars 3 stars 4 stars 5 stars
comments

Ted Hannah Tab

   
Song title: Ted Hannah
Tablature by: Ronald Javier

Inabot ako ng 1 month para makuha ang tamang tablautre nito.Marami kasing nagpo-post ng
tablature eh mali naman. Dinededicate ko itong song na ito sa lahat ng IV-GT ng Luis
Palad National High School Batch 2004-2005 lalo na sa kaisa-isang babae na aking minahal
na si Hannah. Alam ko hindi ako ang "Ted" para sa'yo pero atleast masaya ako at nakilala
kita. Salamat.

Guitar Tuning: standard
Chords:
F-112331
Bb-13331x or 667886
C-35553x or 01023x
Dm-56775x or 1320xx

Intro:
   F                 C
e[---------------------------]
B[---------6-5---------------]
G[-------5-----5---5-4-------]
D[-5h7-----------7-----5-----]
A[-----------------------3---]
E[---------------------------]


   F               C
e[-------------------------8-]
B[---------6-5-----------8---]
G[-------5-----5---5-5/7-----]
D[-5h7-----------7-----------]
A[---------------------------]
E[---------------------------]

   F                 C
e[---------------------------]
B[---------6-5---------------]
G[-------5-----5---5-4-------]
D[-5h7-----------7-----5-----]
A[-----------------------3---]
E[---------------------------]

  F              C
e[---------------8-----------]
B[---------6-5---------------]
G[-------5-----5-------------]
D[-5h7-----------------------]
A[---------------------------]
E[---------------------------]

Verse 1:
F            C-Bb        Dm-C
Para kang kape, di ka nagpapatulog
F           C    Bb            Dm      C
Parang kagabi, gising ako hanggang tanghali
Dm                F              Bb          C
hindi ko nga man lang alam kung sino ka talaga
Dm        F         Bb    C
Kailan kaya kita makikilala

Refrain 1:
    F            C            Bb           C
At pa'no kung nasulat na sa notebook ng tadhana
    F              C           Bb            C 
Ang kwento ng pag-ibig tungkol sa ating dalawa
             Dm       F                   Bb         Bbm-pause
Hindi kaya sayang naman kung 'di man lang natin susundin
      F          C          Bb           F
Ang nais na mangyari ng tadhana para sa'tin

Adlib 1:
 F                 C
e[---------------------------]
B[---------6-5---------------]
G[-------5-----5---5-4-------]
D[-5h7-----------7-----5-----]
A[-----------------------3---]
E[---------------------------]

  F              C
e[---------------8-----------]
B[---------6-5---------------]
G[-------5-----5-------------]
D[-5h7-----------------------]
A[---------------------------]
E[---------------------------]

Verse 2:
F            C-Bb            Dm   C
Para 'kong tanga,'di ko man lang naisip
F                C    Bb         Dm-C   
Na ang pangarap ay mananatiling panaginip
Dm         F           Bb            C
Kung wala akong gawin upang makamtan ka
Dm     F               Bb        C
Paano ka tatama kung 'di ka tataya

REfrain 2:
F                  C          Bb             C
At pa'no kung may contest na sinet-up ang tadhana
   F            C            Bb        C
At ang unang papremyo ay ang makasama ka
       Dm          F                Bb         Bbm-pause
Hindi kaya sayang naman kung 'd ko man lang susubukan
  F         C            Bb          F
Manalo sa paraffle ng tadhana (tantatantah!)
[ Tab from: http://www.guitartabs.cc/tabs/p/parokya_ni_edgar/ted_hannah_tab_ver_8.html ]
Adlib 2:
   F           C        Bb                   Dm          C       F
e[-7/8-6-5---------------------------------------------------------]
B[---------6-6/8----6-8-10-10/11-10-6----6-8-10-10/11-10-8-6-----6-]
G[-----------------------------------------------------------7-5---]
D[-----------------------------------------------------------------]
A[-----------------------------------------------------------------]
E[-----------------------------------------------------------------]

                    C                 Bb
e[-------------5h7-7/8----13-10-8----------------------------------]
B[---------5h7--------------------8-8/10-11-10---------------------]
G[-----5h7-------------------------------------10------------------]
D[-5h7-------------------------------------------------------------]
A[-----------------------------------------------------------------]
E[-----------------------------------------------------------------]

   Dm-C            F             C                     Bb
e[-------------------------------------9h10-12-10-9----------------]
B[-10-8-5h6-5------------3-5-7-8-10-----------------10-12----------]
G[--9-7-------5----------2-4-6-7--9--------------------------------]
D[--------------5-5/7----------------------------------------------]
A[-----------------------------------------------------------------]
E[-----------------------------------------------------------------]

           Dm    C       F            C
e[-----------------------------------------------------------------]
B[-3-5-7-8-10----5-5/7-5-3----3-5-7-8-10---------------------------]
G[-2-4-6-7--9----4-4/6-4-2----2-4-6-7--9---------------------------]
D[-----------------------------------------------------------------]
A[-----------------------------------------------------------------]
E[-----------------------------------------------------------------]

                   Bb
e[-9h10-12-9-10-12-9-10-12-9-10-12-9-10----------------------------]
B[-----------------------------------------------------------------]
G[-----------------------------------------------------------------]
D[-----------------------------------------------------------------]
A[-----------------------------------------------------------------]
E[-----------------------------------------------------------------]

   Dm                     C(hahayaan...) Dm
e[-12-13-11-12-10-11-9-10-8-9-9-10-10-11-12------------------------]
B[-----------------------------------------------------------------]
G[-----------------------------------------------------------------]
D[-----------------------------------------------------------------]
A[-----------------------------------------------------------------]
E[-----------------------------------------------------------------]


Bridge:
                    F                Bb            C-Dm
  Hahayaan bang     mapunta   ka na  lamang   sa   iba
e[-------------12-12-13-12----------------------------------]
B[-------------------------13----11-13-11-10-10h11----------]
G[-------------------------------------------------10-10/12-]
D[----------------------------------------------------------]
A[----------------------------------------------------------]
E[----------------------------------------------------------]
                F            Bb             C
   Nakwento     ko   na yata yan  sa ibang kanta
e[----------------------------------------------------------]
B[----------------------------------------------------------]
G[-10-10-12-12-14-14/15------14-15-14---12-10--12-----------]
D[----------------------------------------------------------]
A[----------------------------------------------------------]
E[----------------------------------------------------------]

Refrain 3:
   F             C        Bb         C
At pa'no kung hindi ako naakit ng tadhana
        F        C             Bb         C
Eh di sana ay hindi ako ang 'yong sinisinta
       Dm         F               Bb         Bbm-pause
'Di kaya sayang naman kung 'di ko man lang susulitin
     F         C        Bb-pause  Bbm-hold
Ang alay na babae ng tadhana              para sa'kin
                     (Repeat intro)

Comments? Suggestions? Questions? Kindly contact me via E-mail javyholics9999@yahoo.com
Comments