Parokya Ni Edgar - Ted Hannah Chords & Tabs

 

Ted Hannah Chords & Tabs

Parokya Ni Edgar Chords & Tabs

Version: 7 Type: Tab 0 ratings
1 star 2 stars 3 stars 4 stars 5 stars
comments

Ted Hannah Tab

   
Title: ted hannah
Artist: parokya ni edgar
Album: bigotilyo

Tabbed by: ROWELL A.(stupidobidoo@yahoo.com) 
          
**BILANG ISA SA MGA TAGAHANGA NG ASTIG NA BANDANG ITO.. IPINAPAMAHAGI NG AMING GRUPO
  ANG TABLATURE NA ITO NA DUMAAN PA SA MASUSING PROSESO PARA SIGURADUHIN NA MALAPIT 
  ITO SA ORIHINAL AT HINDI GIMIK LANG.. WE PLAY FOR WORLD PEACE!!**    

Tuning: STANDARD TUNING( E  A  D  G  B  E)
 
 F:133211
 C:032010
 Dm:000231
 Bb:011311
 
 STANZA CHORDS:
  
 	F-C-Bb-C (2x)
	Dm-C-Bb-C (2x)
	F-C-Bb-C (2x)
	Dm-C-Bb-C (2x)


 INTRO/INTERLUDE/OUTRO:

 e|-------6-5---------------------6-5---------6-13---------------------||
 B|-----6-----6-----6-----------6-----6-----6--------------------------||
 G|-5h7---------7-5---5-----5h7---------7-5----------------------------||
 D|---------------------5----------------------------------------------||
 A|--------------------------------------------------------------------||
 E|--------------------------------------------------------------------||

 e|-------6-5-----------------------6-5-------13-----------------------||
 B|-----6-----6-----6-5-----------6-----6-----13-----------------------||
 G|-5h7---------7-5-----5-----5h7---------7-5--------------------------||
 D|-----------------------5--------------------------------------------||
 A|--------------------------------------------------------------------||
 E|--------------------------------------------------------------------||

 
 SOLO:
[ Tab from: http://www.guitartabs.cc/tabs/p/parokya_ni_edgar/ted_hannah_tab_ver_7.html ]
 e|--------------------------------------------------------------------||
 B|-13-11-10-6-6s8-6-8-10-11-10-6---6-8-10-11-10-8-6-------------------||
 G|--------------------------------------------------7-9-9s10----------||
 D|--------------------------------------------------------------------||
 A|--------------------------------------------------------------------||
 E|--------------------------------------------------------------------||

 e|-------------------------15-13--------------------------------------||
 B|------------9h10-9h10-12-------6-8-10-11-10-10----8-6-5-------------|| 
 G|-------9h11---------------------------------10-10-9-----5-7---------||
 D|-10h12--------------------------------------------------------------||
 A|--------------------------------------------------------------------||
 E|--------------------------------------------------------------------||

 e|-----------------13-10-8--------------------------------------------||
 B|-6-8-11-13-13h15---------9-10-6-8-10-11-10-8-6-6-6--6-8-10-11-13----||
 G|-6-8-11-13--------------------6-8-10-11-10-8-6-6-6--6-8-10-11-13----||
 D|--------------------------------------------------------------------||
 A|--------------------------------------------------------------------||
 E|--------------------------------------------------------------------||

 e|-------13-14-11-12-13-15-17-13-15-17-13-15-15h17-14h16-13h15-12h14--||
 B|-13h15--------------------------------------------------------------||
 G|--------------------------------------------------------------------||
 D|--------------------------------------------------------------------||
 A|--------------------------------------------------------------------||
 E|--------------------------------------------------------------------||

 e|-11h13-10h12-9h11-9--||
 B|---------------------||
 G|---------------------||
 D|---------------------||
 A|---------------------||
 E|---------------------||


 ARRANGEMENT:

 - INTRO(CHORDS:F-C6 ACCOMPANIED BY INTRO LEAD)
 - STANZA CHORDS 
 - INTERLUDE
 - STANZA CHORDS
 - Solo (SOLO IS ACCOMPANIED BY THE VERSE CHORDS)
 - STANZA CHORDS
 - OUTRO

                                      **WORLD PEACE!**
Comments