Parokya Ni Edgar - Ted Hannah Chords & Tabs

 

Ted Hannah Chords & Tabs

Parokya Ni Edgar Chords & Tabs

Version: 6 Type: Tab 0 ratings
1 star 2 stars 3 stars 4 stars 5 stars
comments

Ted Hannah Tab

ei!! 1st tym ko lng 2.. so plz rate my tab properly.. thnx..

Ted Hannah by PnE

Intro:
e----------------------------------------------------12--|
b--------10-9------------------------10-9---------10-----|
g------9------9----9-8-------------9------9----9---------|
d-9s11----------11-----9------9s11----------11-----------|
a------------------------7-------------------------------|
e--------------------------------------------------------|

e----------------------------------------------------12--|
b--------10-9------------------------10-9----------------|
g------9------9----9-8-------------9------9--------------|
d-9s11----------11-----9------9s11----------11-----------|
a------------------------7-------------------------------|
e--------------------------------------------------------|

Intro2:
e----------------------------------------------------12--|
b--------10-9------------------------10-9----------------|
g------9------9----9-8-------------9------9--------------|
d-9s11----------11-----9------9s11----------11-----------|
a------------------------7-------------------------------|
e--------------------------------------------------------|

Solo:
e--------------------------------------------------------|
b-10h12-10-9-----------9-10-9--------9-10-9--------------|
g------------9h11-9-11--------9-9h11--------11-9------9--|
d------------------------------------------------11-9----|
a--------------------------------------------------------|
e--------------------------------------------------------|
[ Tab from: http://www.guitartabs.cc/tabs/p/parokya_ni_edgar/ted_hannah_tab_ver_6.html ]
e------------------------12s14-11-------------------------------------|
b----------------9-10-12----------12----9-9h10p9---12-10--------------|
g-----------9h11---------------------11----------9-11-9--8h9p8--------|
d------9h11----------------------------------------------------9-9s11-|
a-9h11----------------------------------------------------------------|
e---------------------------------------------------------------------|

e--------------------12-11--------------------------------------------|
b------9-10-12-12s14-------12-9-9h10------9-12-10-9-10----------------|
g-9-11-------------------------------9-11---11-9-------9-11-----------|
d---------------------------------------------------------------------|
a---------------------------------------------------------------------|
e---------------------------------------------------------------------|

e--------------------12-9-12-14-11-12-14-11-12-14-11-12--|
b------9-10-12-12s14-------------------------------------|
g-9-11---------------------------------------------------|
d--------------------------------------------------------|
a--------------------------------------------------------|
e--------------------------------------------------------|
                       really fast
  ,~~~~~~~~~~~~~~~~~~~~~~~~~^~~~~~~~~~~~~~~~~~~~~~~~~.
e-14-16-12-12-14-11-11-12-9-7-9-11-9-11-12-11-12-14-16---|
b--------------------------------------------------------|
g--------------------------------------------------------|
d--------------------------------------------------------|
a--------------------------------------------------------|
e--------------------------------------------------------|

dat's ol!! Njoy!!
Hop it'z ryt..
Comments