Parokya Ni Edgar - Ted Hannah Chords & Tabs

 

Ted Hannah Chords & Tabs

Parokya Ni Edgar Chords & Tabs

Version: 1 Type: Tab 0 ratings
1 star 2 stars 3 stars 4 stars 5 stars
comments

Ted Hannah Tab

song: TED HANNAH
artist: PnE
album: BIGotilyo
composer: Chito Miranda
tabbed by: Eron Reyes
e-mail me: eronreyes@yahoo.com
 
TED HANNAH
 
LEGENDS:
"s" - slide to
"h" - hammer-on
 
THIS IS THE INTRO:
 
e-2--2-0-2--6-5--------------------
b-3-----------------6----6-5-------
g-2--------------------7------5----
d-0------------------------------5-
a----------------------------------
e----------------------------------
 
e-2--2-0-2--6-5--------------------8-
b-3-----------------6----6--4s5-6----
g-2--------------------7-------------
d-0----------------------------------
a------------------------------------
e------------------------------------
 
e-2--2-0-2--6-5----------------------
b-3-----------------6----6-5---------
g-2--------------------7-------5-----
d-0--------------------------------5-
a------------------------------------
e------------------------------------
 
e-2--2-0-2--6-5-----8-----------
b-3--------------6--------------
g-2-----------------------------
d-0-----------------------------
a-------------------------------
e-------------------------------
 
THIS IS THE TAB AFTER THE 1ST CHORUS: (at pano kung nasulat na sa notebook...)
e-2--2-0-2--6-5----------------------
b-3-----------------6----6-5---------
g-2--------------------7-------5-----
d-0--------------------------------5-
a------------------------------------
e------------------------------------
[ Tab from: http://www.guitartabs.cc/tabs/p/parokya_ni_edgar/ted_hannah_tab.html ]
e-2--2-0-2--6-5------8---
b-3--------------6-------
g-2----------------------
d-0----------------------
a------------------------
e------------------------
 
THIS IS THE TAB AFTER THE 2ND CHORUS: (at pano kung may contest na sinet-up...)
(solo)
 
e-7s8--6-5---------------------------------
b--------------6-6s8-----6-8-10-10h11-10-6-
g------------------------------------------
d------------------------------------------
a------------------------------------------
e------------------------------------------
 
e------------------------------
b--6-8-10-10h11-10-8-6-------6-
g-----------------------7-5----
d------------------------------
a------------------------------
e------------------------------
 
e--------------6-7-8-8s10--12s14--11-9----7-7h8-7----
b------7-8-9---------------------------9-----------8-
g---8------------------------------------------------
d-7--------------------------------------------------
a----------------------------------------------------
e----------------------------------------------------
 
e--7----5--4h5--4------------
b--7----5-------------5--5s7-
g-----7----------------------
d----------------------------
a----------------------------
e----------------------------
 
e-----------------------------------------
b---------8-9-11--11s13-15-14-12------9---
g-8-10---------------------------12-------
d-----------------------------------------
a-----------------------------------------
e-----------------------------------------
 
e----------------7--5--5h7----------
b---------8--------------------6--7-
g-8-10-------7----------------------
d-----------------------------------
a-----------------------------------
e-----------------------------------
 
e------------------------------------
b---------8-9-11--11s13--16-13-14-16-
g-8-10-------------------------------
d------------------------------------
a------------------------------------
e------------------------------------
 
e---------------------------
b-13-14-16--13-14-16--13-14-
g---------------------------
d---------------------------
a---------------------------
e---------------------------
 
(fast)
 
e-11-12-11-10-11-10-9-10-9-10-11-12-11-12-13--15-
b------------------------------------------------
g------------------------------------------------
d------------------------------------------------
a------------------------------------------------
e------------------------------------------------
 
TAB AFTER THE 3RD CHORUS: (at pano kung hindi ako naakit ng tadhana...)
"is the same with the intro tab"
 
 
THAT'S ALL MGA CHONG! 
just listen to the song to get perfect timing where to insert each tab!
ok, ENJOY my work!
 
pls. react: eronreyes@yahoo.com
 
  
Comments