Parokya Ni Edgar - Sorry Na Chords & Tabs

 

Sorry Na Chords & Tabs

Parokya Ni Edgar Chords & Tabs

Version: 2 Type: Bass Tab

Sorry Na Bass Tab

intro
----------------------------------------|
----------------------------------------|
------------------5h6-6s8--8p6-5--------|
-6-8s10-6-8-10-------------------8-6----|

verse 1
------------------------------------------|
------------------------------------------|
-----------------------5h6-6s8-8p6-5------|
-6-6h8-6-6---6-6h8-6-1---------------8-6--|

-----------------------------------------------------|
-----------------------------------------------------|
------------------------5h6s8-6-5-1------------------|
-6-6h8-6-6---6-6h8-6-1--------------6h8-8s11-10-8-6--|

------------------------------------------|
------------------------------------------|
-----------------------6s8-8p6-5----------|
-6-6h8-6-6---6-6h8-6-1---------------8-6--|

-----------------------------------------------------|
-----------------------------------------------------|
------------------------5h6s8-6-5-1------------------|
-6-6h8-6-6---6-6h8-6-1--------------6h8-8s11-10-8-6--|

chorus: DI KO PA ALAM... MALAKAS KASI UNG ELCTRIC GUITAR NAG PAROKYA.. OR.. KAU NA BHALA
verse 2
------------------------------------------|
------------------------------------------|
-----------------------5h6-6s8-8p6-5------|
-6-6h8-6-6---6-6h8-6-1---------------8-6--|
[ Tab from: http://www.guitartabs.cc/tabs/p/parokya_ni_edgar/sorry_na_btab_ver_2.html ]
-----------------------------------------------------|
-----------------------------------------------------|
------------------------5h6s8-6-5-1------------------|
-6-6h8-6-6---6-6h8-6-1--------------6h8-8s11-10-8-6--|

------------------------------------------|
------------------------------------------|
-----------------------5h6-6s8-8p6-5------|
-6-6h8-6-6---6-6h8-6-1---------------8-6--|

-----------------------------------------------------|
-----------------------------------------------------|
------------------------5h6s8-6-5-1------------------|
-6-6h8-6-6---6-6h8-6-1--------------6h8-8s11-10-8-6--|

----------------------------------------------------------------|
----------------------------------------------------------------|
--------------------------5h6s8-6s5s1---------------------------|
-6-6h8-6-6s9-6-6-1-6-6s8--------------6-6-6-6s13-11-11-10s8-8s6-|

last part bago mag instrumental na sobrang ingay.. (habang instrumental paglaruan nyo 
ung bass..
hnd nmn kyo marrnig eh.)

-----------------------------------------------------|
-----------------------------------------------------|
-----------------------------------------------------|
-6-6h8-6-6---6-6h8-6-1---6-8-10-11-13-15-11b---------|

Instrumental.. d ko na alm kng may bass pa dun.. d ko marinig eh..

dis is about 40% match sa totoong bass.. dis is my version,, kya di sya ganun ka accurate,
pasensya na kyo dun,