Parokya Ni Edgar - Sorry Na Chords & Tabs

 

Sorry Na Chords & Tabs

Parokya Ni Edgar Chords & Tabs

Version: 1 Type: Bass Tab 0 ratings
1 star 2 stars 3 stars 4 stars 5 stars
comments

Sorry Na Bass Tab

   
Song: Sorry na (beybe)
Artist: Parokya ni Edgar
Tabbed By: Jared Uy 9198507486
Album: Edgar, Edgar, Musikahan
Composed by: Alfonso Miranda Jr. a.k.a. CHITOSAN!!

Chords: A-AM7-A7-D-Dsus


------------------------------------------------------------
------------------------------------------------------------
----------------------4-4h5s-7-----------7h5--4-------------
------5-----5-----7---------------------------------7----5--
[ Tab from: http://www.guitartabs.cc/tabs/p/parokya_ni_edgar/sorry_na_btab.html ]
------------------------------------------------------------
------------------------------------------------------------
----------------------4-4h5s-7-----------7h5--4-------------
------5-----5-----7---------------------------------7----5--

------------------------------------------------------------
------------------------------------------------------------
----------------------4-4h5s-7-----------7h5--4-------------
------5-----5-----7---------------------------------7----5--


PAULIT-ULIT lang po, pero kapag maingay na, siyempre, hindi na
BOBO niyo pag di niyo nakuha to. BASS to ha..hindi GUITAR!!
TANGA!
Comments