Parokya Ni Edgar - San Man Patungo Chords & Tabs

 

San Man Patungo Chords & Tabs

Parokya Ni Edgar Chords & Tabs

Version: 2 Type: Tab 0 ratings
1 star 2 stars 3 stars 4 stars 5 stars
comments

San Man Patungo Tab

SAAN MAN PATUNGO TABLATURE
(transcribed by Carlo Averia)


filler: (chorus + delay)
[ Tab from: http://www.guitartabs.cc/tabs/p/parokya_ni_edgar/san_man_patungo_tab_ver_2.html ]
1 ----------------------------------------------------------
2 --------3-3------------3-3------------1-1-------0--0--0---
3 ---0--0----4-0-------------4--------------2-0--2--2--2----
4 ----4------------4-2-4------4---2-0-2---------------------
5 ----------------------------------------------------------
6 ----------------------------------------------------------

1 ------------3-2-3-2-----------------------------0--------
2 --------3--3-------3-----------1-1----------3----3-------
3 ---0--0-------------/4-------------2-0---2-2--2---2--0---
4 ----4--------------------2-0-2---------------------4-----
5 ---------------------------------------------------------
6 ---------------------------------------------------------




Comments