Parokya Ni Edgar - San Man Patungo Chords & Tabs

 

San Man Patungo Chords & Tabs

Parokya Ni Edgar Chords & Tabs

Version: 1 Type: Tab 0 ratings
1 star 2 stars 3 stars 4 stars 5 stars
comments

San Man Patungo Tab

   
San Man Patungo
parokya ni edgar
tabbed by Lester

this is my first ever attempt to submit a tab and i think its about 70-80% correct. 
there are some parts missing and i will try to update it when i'm not too lazy :)
enjoy playing!
riff
play this when the "di ko maalala ang lyrics ng kanta..." part
|e----3---------3--------------|----2---------2------------|----0--------0------------|
|b-------3---------3-----3-----|-------3---------3-----3---|-------1--------1-----1---|
|g----------0---------0--------|----------4---------4------|----------2--------2------|
|d-0---------------------------|-4-------------------------|-2------------------------|
|a-----------------------------|---------------------------|--------------------------|
|e-----------------------------|---------------------------|--------------------------|

|----2h3p2--------2h3p2------------|
|------------------------3---------|
|-2------------2-------------------|
|----------------------------------|
|----------------------------------|
|----------------------------------|

|e----3---------3--------------|----2---------2------------|----0--------0------------|
|b-------3---------3-----3-----|-------3---------3-----3---|-------1--------1-----1---|
|g----------0---------0--------|----------4---------4------|----------2--------2------|
|d-0---------------------------|-4-------------------------|-2------------------------|
|a-----------------------------|---------------------------|--------------------------|
|e-----------------------------|---------------------------|--------------------------|

|----2--------2--------------------|
|-------3--------3-----------------|
|----------2--------2--------------|
|-0--------------------------------|
|----------------------------------|
|----------------------------------|

i'm not sure about the "d ko inakala na magkakaganito..." part if the riff can be used... just try to 
figure that one out ok?

little solo after the chorus
|e---------------------------|------------------------|------------------------|
|b----------3--3-------------|----------3--3----------|----------1--1----------|
|g----0-----------4--0-------|----------------4-------|----------------2--0----|
|d-4-----4-------------------|-4--2--4-----------4----|-2--0--2----------------|
|a---------------------------|------------------------|------------------------|
|e---------------------------|------------------------|------------------------|
[ Tab from: http://www.guitartabs.cc/tabs/p/parokya_ni_edgar/san_man_patungo_tab.html ]
|----------------------------------|
|----0-----0-----0-----0-----------|
|-2-----2-----2-----2--------------|
|----------------------------------|
|----------------------------------|
|----------------------------------|

|e----------------3--2-----|-3--2---------------|------------------------|
|b----------3--3-----------|-------3------------|----------1--1----------|
|g----0--------------------|----------4---------|----------------2--0----|
|d-4-----4-----------------|--------------------|-2--0--2----------------|
|a-------------------------|--------------------|------------------------|
|e-------------------------|--------------------|------------------------|

|-------------0--------------|
|-------3--------3-----------|
|-2--2-----2--------2-----0--|
|----------------------4-----|
|----------------------------|
|----------------------------|

lyrics
Saan Man Patungo 

G Bm Am D
magdamag nag gigitara, ang haba ng gabi 
G Bm Am D 
ang daming iniisip ngunit wala namang masabi 
G Bm Am D 
nagsawa ka na ba? subukan mong tumawa 
G Bm Am D 
tigilan ang pag-iisip, ipagpatuloy ang pananaginip 
(do stanza chords) 
di ko maalala ang lyrics ng kanta 
kahit ako ang gumawa, iba naman ang nagsalita 
mahirap talaga kapag inaasahan ka 
awitin ang mga tula na nagmumula sa pera 


(do stanza chords) 
di ko inakala na magkakaganito 
wala namang nagsabi na malabo ang mundo 
di na rin namin inaasahang maintindihan 
alam naman nilang wala kaming pakialam 


G Bm 
kung saan man tutungo 
Am D 
at kung kailan kami hihinto 
G Bm 
kung bukas man o bukas pa 
Am D G 
tuluyan nang tapusin ang kanta 


(do stanza chords) 
gising hanggang umaga, hindi mapakali 
pinipiga ang utak ngunit wala pa ring masabi 
kapag pinilit mo, at hindi na totoo 
ang awit na natapos mo ay mawawalan ng tono 


Em Bm Am - D 
wag mo na silang isipin pa 
Em Bm Am D 
ayoko nang unahin ang iba sa pagkanta 
Em Bm 
hindi na dapat pagbigyan 
Am D 
ang buhay ay sadyang ganyan 
Em Bm 
wala na dapat tandaan 
Am D 
pag tayo ay nagkakantahan 

end

if you have any comment or anything you may or may not e-mail me 
just in case lester_poa@yahoo.com or xxlesterxx@edsamail.com
Comments